  0
SECTION
  2
HEADER
  9
$ACADVER
  1
AC1015
  9
$ACADMAINTVER
 70
     6
  9
$DWGCODEPAGE
  3
ANSI_1254
  9
$INSBASE
 10
0.0
 20
0.0
 30
0.0
  9
$EXTMIN
 10
0.0
 20
0.0
 30
0.0
  9
$EXTMAX
 10
279.4
 20
215.9
 30
0.0
  9
$LIMMIN
 10
0.0
 20
0.0
  9
$LIMMAX
 10
279.4
 20
215.9
  9
$ORTHOMODE
 70
     0
  9
$REGENMODE
 70
     1
  9
$FILLMODE
 70
     1
  9
$QTEXTMODE
 70
     0
  9
$MIRRTEXT
 70
     1
  9
$LTSCALE
 40
1.0
  9
$ATTMODE
 70
     1
  9
$TEXTSIZE
 40
3.5
  9
$TRACEWID
 40
1.0
  9
$TEXTSTYLE
  7
Standard
  9
$CLAYER
  8
0
  9
$CELTYPE
  6
ByLayer
  9
$CECOLOR
 62
   256
  9
$CELTSCALE
 40
1.0
  9
$DISPSILH
 70
     0
  9
$DIMSCALE
 40
1.0
  9
$DIMASZ
 40
3.5
  9
$DIMEXO
 40
1.0
  9
$DIMDLI
 40
3.75
  9
$DIMRND
 40
0.0
  9
$DIMDLE
 40
0.0
  9
$DIMEXE
 40
1.0
  9
$DIMTP
 40
0.0
  9
$DIMTM
 40
0.0
  9
$DIMTXT
 40
3.5
  9
$DIMCEN
 40
2.5
  9
$DIMTSZ
 40
0.0
  9
$DIMTOL
 70
     0
  9
$DIMLIM
 70
     0
  9
$DIMTIH
 70
     1
  9
$DIMTOH
 70
     1
  9
$DIMSE1
 70
     0
  9
$DIMSE2
 70
     0
  9
$DIMTAD
 70
     1
  9
$DIMZIN
 70
     0
  9
$DIMBLK
  1

  9
$DIMASO
 70
     1
  9
$DIMSHO
 70
     1
  9
$DIMPOST
  1

  9
$DIMAPOST
  1

  9
$DIMALT
 70
     0
  9
$DIMALTD
 70
     3
  9
$DIMALTF
 40
0.0393700787
  9
$DIMLFAC
 40
1.0
  9
$DIMTOFL
 70
     1
  9
$DIMTVP
 40
0.0
  9
$DIMTIX
 70
     0
  9
$DIMSOXD
 70
     0
  9
$DIMSAH
 70
     0
  9
$DIMBLK1
  1

  9
$DIMBLK2
  1

  9
$DIMSTYLE
  2
ISO-25
  9
$DIMCLRD
 70
     0
  9
$DIMCLRE
 70
     0
  9
$DIMCLRT
 70
     0
  9
$DIMTFAC
 40
1.0
  9
$DIMGAP
 40
1.524
  9
$DIMJUST
 70
     0
  9
$DIMSD1
 70
     0
  9
$DIMSD2
 70
     0
  9
$DIMTOLJ
 70
     0
  9
$DIMTZIN
 70
     0
  9
$DIMALTZ
 70
     0
  9
$DIMALTTZ
 70
     0
  9
$DIMUPT
 70
     0
  9
$DIMDEC
 70
     2
  9
$DIMTDEC
 70
     2
  9
$DIMALTU
 70
     2
  9
$DIMALTTD
 70
     3
  9
$DIMTXSTY
  7
Standard
  9
$DIMAUNIT
 70
     0
  9
$DIMADEC
 70
     2
  9
$DIMALTRND
 40
0.0
  9
$DIMAZIN
 70
     0
  9
$DIMDSEP
 70
    44
  9
$DIMATFIT
 70
     3
  9
$DIMFRAC
 70
     0
  9
$DIMLDRBLK
  1

  9
$DIMLUNIT
 70
     2
  9
$DIMLWD
 70
    -2
  9
$DIMLWE
 70
    -2
  9
$DIMTMOVE
 70
     0
  9
$LUNITS
 70
     2
  9
$LUPREC
 70
     2
  9
$SKETCHINC
 40
1.0
  9
$FILLETRAD
 40
10.0
  9
$AUNITS
 70
     0
  9
$AUPREC
 70
     2
  9
$MENU
  1
.
  9
$ELEVATION
 40
0.0
  9
$PELEVATION
 40
0.0
  9
$THICKNESS
 40
0.0
  9
$LIMCHECK
 70
     0
  9
$CHAMFERA
 40
0.0
  9
$CHAMFERB
 40
0.0
  9
$CHAMFERC
 40
0.0
  9
$CHAMFERD
 40
0.0
  9
$SKPOLY
 70
     0
  9
$TDCREATE
 40
2458985.651570428
  9
$TDUCREATE
 40
2458985.526570428
  9
$TDUPDATE
 40
2458985.651570729
  9
$TDUUPDATE
 40
2458985.526570729
  9
$TDINDWG
 40
0.0000000116
  9
$TDUSRTIMER
 40
0.0000000116
  9
$USRTIMER
 70
     1
  9
$ANGBASE
 50
0.0
  9
$ANGDIR
 70
     0
  9
$PDMODE
 70
     0
  9
$PDSIZE
 40
-1.0
  9
$PLINEWID
 40
0.0
  9
$SPLFRAME
 70
     0
  9
$SPLINETYPE
 70
     6
  9
$SPLINESEGS
 70
     8
  9
$HANDSEED
  5
C1
  9
$SURFTAB1
 70
     6
  9
$SURFTAB2
 70
     6
  9
$SURFTYPE
 70
     6
  9
$SURFU
 70
     6
  9
$SURFV
 70
     6
  9
$UCSBASE
  2

  9
$UCSNAME
  2

  9
$UCSORG
 10
0.0
 20
0.0
 30
0.0
  9
$UCSXDIR
 10
1.0
 20
0.0
 30
0.0
  9
$UCSYDIR
 10
0.0
 20
1.0
 30
0.0
  9
$UCSORTHOREF
  2

  9
$UCSORTHOVIEW
 70
     0
  9
$UCSORGTOP
 10
0.0
 20
0.0
 30
0.0
  9
$UCSORGBOTTOM
 10
0.0
 20
0.0
 30
0.0
  9
$UCSORGLEFT
 10
0.0
 20
0.0
 30
0.0
  9
$UCSORGRIGHT
 10
0.0
 20
0.0
 30
0.0
  9
$UCSORGFRONT
 10
0.0
 20
0.0
 30
0.0
  9
$UCSORGBACK
 10
0.0
 20
0.0
 30
0.0
  9
$PUCSBASE
  2

  9
$PUCSNAME
  2

  9
$PUCSORG
 10
0.0
 20
0.0
 30
0.0
  9
$PUCSXDIR
 10
1.0
 20
0.0
 30
0.0
  9
$PUCSYDIR
 10
0.0
 20
1.0
 30
0.0
  9
$PUCSORTHOREF
  2

  9
$PUCSORTHOVIEW
 70
     0
  9
$PUCSORGTOP
 10
0.0
 20
0.0
 30
0.0
  9
$PUCSORGBOTTOM
 10
0.0
 20
0.0
 30
0.0
  9
$PUCSORGLEFT
 10
0.0
 20
0.0
 30
0.0
  9
$PUCSORGRIGHT
 10
0.0
 20
0.0
 30
0.0
  9
$PUCSORGFRONT
 10
0.0
 20
0.0
 30
0.0
  9
$PUCSORGBACK
 10
0.0
 20
0.0
 30
0.0
  9
$USERI1
 70
     0
  9
$USERI2
 70
     0
  9
$USERI3
 70
     0
  9
$USERI4
 70
     0
  9
$USERI5
 70
     0
  9
$USERR1
 40
0.0
  9
$USERR2
 40
0.0
  9
$USERR3
 40
0.0
  9
$USERR4
 40
0.0
  9
$USERR5
 40
0.0
  9
$WORLDVIEW
 70
     1
  9
$SHADEDGE
 70
     3
  9
$SHADEDIF
 70
    70
  9
$TILEMODE
 70
     1
  9
$MAXACTVP
 70
    64
  9
$PINSBASE
 10
0.0
 20
0.0
 30
0.0
  9
$PLIMCHECK
 70
     0
  9
$PEXTMIN
 10
1.0000000000E+20
 20
1.0000000000E+20
 30
1.0000000000E+20
  9
$PEXTMAX
 10
-1.0000000000E+20
 20
-1.0000000000E+20
 30
-1.0000000000E+20
  9
$PLIMMIN
 10
0.0
 20
0.0
  9
$PLIMMAX
 10
420.0
 20
297.0
  9
$UNITMODE
 70
     0
  9
$VISRETAIN
 70
     1
  9
$PLINEGEN
 70
     0
  9
$PSLTSCALE
 70
     1
  9
$TREEDEPTH
 70
  3020
  9
$CMLSTYLE
  2
Standard
  9
$CMLJUST
 70
     0
  9
$CMLSCALE
 40
20.0
  9
$PROXYGRAPHICS
 70
     1
  9
$MEASUREMENT
 70
     1
  9
$CELWEIGHT
370
    -1
  9
$ENDCAPS
280
     0
  9
$JOINSTYLE
280
     0
  9
$LWDISPLAY
290
     1
  9
$INSUNITS
 70
     4
  9
$HYPERLINKBASE
  1

  9
$STYLESHEET
  1

  9
$XEDIT
290
     1
  9
$CEPSNTYPE
380
     0
  9
$PSTYLEMODE
290
     1
  9
$FINGERPRINTGUID
  2
{286ebe0e-de69-4fb1-816b-d78077b8dac9}
  9
$VERSIONGUID
  2
{FAEB1C32-E019-11D5-929B-00C0DF256EC4}
  9
$EXTNAMES
290
     1
  9
$PSVPSCALE
 40
0.0
  9
$OLESTARTUP
290
     0
  0
ENDSEC
  0
SECTION
  2
CLASSES
  0
CLASS
  1
ACDBDICTIONARYWDFLT
  2
AcDbDictionaryWithDefault
  3
ObjectDBX Classes
 90
        0
280
     0
281
     0
  0
CLASS
  1
VISUALSTYLE
  2
AcDbVisualStyle
  3
ObjectDBX Classes
 90
     4095
280
     0
281
     0
  0
CLASS
  1
MATERIAL
  2
AcDbMaterial
  3
ObjectDBX Classes
 90
     1153
280
     0
281
     0
  0
CLASS
  1
SCALE
  2
AcDbScale
  3
ObjectDBX Classes
 90
     1153
280
     0
281
     0
  0
CLASS
  1
TABLESTYLE
  2
AcDbTableStyle
  3
ObjectDBX Classes
 90
     4095
280
     0
281
     0
  0
CLASS
  1
MLEADERSTYLE
  2
AcDbMLeaderStyle
  3
ACDB_MLEADERSTYLE_CLASS
 90
     4095
280
     0
281
     0
  0
CLASS
  1
SUN
  2
AcDbSun
  3
SCENEOE
 90
     1153
280
     0
281
     0
  0
CLASS
  1
ACDBPLACEHOLDER
  2
AcDbPlaceHolder
  3
ObjectDBX Classes
 90
        0
280
     0
281
     0
  0
CLASS
  1
LAYOUT
  2
AcDbLayout
  3
ObjectDBX Classes
 90
        0
280
     0
281
     0
  0
ENDSEC
  0
SECTION
  2
TABLES
  0
TABLE
  2
VPORT
  5
8
330
0
100
AcDbSymbolTable
 70
     1
  0
VPORT
  5
29
330
8
100
AcDbSymbolTableRecord
100
AcDbViewportTableRecord
  2
*Active
 70
     0
 10
0.0
 20
0.0
 11
1.0
 21
1.0
 12
139.7
 22
107.95
 13
0.0
 23
0.0
 14
10.0
 24
10.0
 15
10.0
 25
10.0
 16
0.0
 26
0.0
 36
1.0
 17
0.0
 27
0.0
 37
0.0
 40
215.9
 41
1.2941176471
 42
50.0
 43
0.0
 44
0.0
 50
0.0
 51
0.0
 71
     0
 72
  2000
 73
     1
 74
     3
 75
     0
 76
     0
 77
     0
 78
     0
281
     0
 65
     1
110
0.0
120
0.0
130
0.0
111
1.0
121
0.0
131
0.0
112
0.0
122
1.0
132
0.0
 79
     0
146
0.0
  0
ENDTAB
  0
TABLE
  2
LTYPE
  5
5
330
0
100
AcDbSymbolTable
 70
     6
  0
LTYPE
  5
14
330
5
100
AcDbSymbolTableRecord
100
AcDbLinetypeTableRecord
  2
ByBlock
 70
     0
  3

 72
    65
 73
     0
 40
0.0
  0
LTYPE
  5
15
330
5
100
AcDbSymbolTableRecord
100
AcDbLinetypeTableRecord
  2
ByLayer
 70
     0
  3

 72
    65
 73
     0
 40
0.0
  0
LTYPE
  5
16
330
5
100
AcDbSymbolTableRecord
100
AcDbLinetypeTableRecord
  2
Continuous
 70
     0
  3
Solid line
 72
    65
 73
     0
 40
0.0
  0
LTYPE
  5
6E
330
5
100
AcDbSymbolTableRecord
100
AcDbLinetypeTableRecord
  2
HIDDEN
 70
     0
  3
Hidden __ __ __ __ __ __ __ __ __ __ __ __ __ __
 72
    65
 73
     2
 40
1.905
 49
1.27
 74
     0
 49
-0.635
 74
     0
  0
LTYPE
  5
6F
330
5
100
AcDbSymbolTableRecord
100
AcDbLinetypeTableRecord
  2
PHANTOM
 70
     0
  3
Phantom ______  __  __  ______  __  __  ______
 72
    65
 73
     6
 40
12.7
 49
6.35
 74
     0
 49
-1.27
 74
     0
 49
1.27
 74
     0
 49
-1.27
 74
     0
 49
1.27
 74
     0
 49
-1.27
 74
     0
  0
LTYPE
  5
70
330
5
100
AcDbSymbolTableRecord
100
AcDbLinetypeTableRecord
  2
CENTER
 70
     0
  3
Center ____ _ ____ _ ____ _ ____ _ ____ _ ____
 72
    65
 73
     4
 40
10.16
 49
6.35
 74
     0
 49
-1.27
 74
     0
 49
1.27
 74
     0
 49
-1.27
 74
     0
  0
LTYPE
  5
71
330
5
100
AcDbSymbolTableRecord
100
AcDbLinetypeTableRecord
  2
CENTERX2
 70
     0
  3
Center (2x) ________  __  ________  __  _____
 72
    65
 73
     4
 40
20.32
 49
12.7
 74
     0
 49
-2.54
 74
     0
 49
2.54
 74
     0
 49
-2.54
 74
     0
  0
LTYPE
  5
72
330
5
100
AcDbSymbolTableRecord
100
AcDbLinetypeTableRecord
  2
DOT2
 70
     0
  3
Dot (.5x) ........................................
 72
    65
 73
     2
 40
0.635
 49
0.0
 74
     0
 49
-0.635
 74
     0
  0
ENDTAB
  0
TABLE
  2
LAYER
  5
2
330
0
100
AcDbSymbolTable
 70
    17
  0
LAYER
  5
10
330
2
100
AcDbSymbolTableRecord
100
AcDbLayerTableRecord
  2
0
 70
     0
 62
     7
  6
Continuous
370
    -3
390
F
  0
LAYER
  5
73
330
2
100
AcDbSymbolTableRecord
100
AcDbLayerTableRecord
  2
FORMAT
 70
     0
 62
     7
  6
Continuous
370
    -3
390
F
  0
LAYER
  5
74
330
2
100
AcDbSymbolTableRecord
100
AcDbLayerTableRecord
  2
YARDIMCI_GEOMETRI
 70
     0
 62
    -6
  6
Continuous
290
     0
370
    -3
390
F
  0
LAYER
  5
75
330
2
100
AcDbSymbolTableRecord
100
AcDbLayerTableRecord
  2
SAYFA_CERCEVESI
 70
     0
 62
     7
  6
Continuous
370
    25
390
F
  0
LAYER
  5
76
330
2
100
AcDbSymbolTableRecord
100
AcDbLayerTableRecord
  2
ANTET
 70
     0
 62
     7
  6
Continuous
370
    -3
390
F
  0
LAYER
  5
77
330
2
100
AcDbSymbolTableRecord
100
AcDbLayerTableRecord
  2
OLCU
 70
     0
 62
   150
  6
Continuous
370
    -3
390
F
  0
LAYER
  5
78
330
2
100
AcDbSymbolTableRecord
100
AcDbLayerTableRecord
  2
METIN
 70
     0
 62
    96
  6
Continuous
370
    -3
390
F
  0
LAYER
  5
79
330
2
100
AcDbSymbolTableRecord
100
AcDbLayerTableRecord
  2
BALON
 70
     0
 62
     5
  6
Continuous
370
    -3
390
F
  0
LAYER
  5
7A
330
2
100
AcDbSymbolTableRecord
100
AcDbLayerTableRecord
  2
VURGU
 70
     0
 62
     7
  6
Continuous
370
    -3
390
F
  0
LAYER
  5
7B
330
2
100
AcDbSymbolTableRecord
100
AcDbLayerTableRecord
  2
SILIK
 70
     0
 62
     7
  6
Continuous
370
    -3
390
F
  0
LAYER
  5
7C
330
2
100
AcDbSymbolTableRecord
100
AcDbLayerTableRecord
  2
MODEL
 70
     0
 62
     7
  6
Continuous
370
    -3
390
F
  0
LAYER
  5
7D
330
2
100
AcDbSymbolTableRecord
100
AcDbLayerTableRecord
  2
DETAYLANDıRMA
 70
     0
 62
   190
  6
Continuous
370
    -3
390
F
  0
LAYER
  5
7E
330
2
100
AcDbSymbolTableRecord
100
AcDbLayerTableRecord
  2
TOLERANS
 70
     0
 62
   230
  6
Continuous
370
    -3
390
F
  0
LAYER
  5
7F
330
2
100
AcDbSymbolTableRecord
100
AcDbLayerTableRecord
  2
MERKEZ_CIZGILERI
 70
     0
 62
    30
  6
Continuous
370
    -3
390
F
  0
LAYER
  5
80
330
2
100
AcDbSymbolTableRecord
100
AcDbLayerTableRecord
  2
KESIT-DETAY_CIZGILERI
 70
     0
 62
     7
  6
Continuous
370
    -3
390
F
  0
LAYER
  5
81
330
2
100
AcDbSymbolTableRecord
100
AcDbLayerTableRecord
  2
\U+041E\U+0421\U+0415\U+0412\U+042B\U+0415
 70
     0
 62
     7
  6
Continuous
370
    -3
390
F
  0
LAYER
  5
82
330
2
100
AcDbSymbolTableRecord
100
AcDbLayerTableRecord
  2
\U+0412\U+041E\U+0414\U+042F\U+041D\U+042B\U+0415_\U+0417\U+041D\U+0410\U+041A\U+0418
 70
     0
 62
    11
  6
Continuous
370
    -3
390
F
  0
ENDTAB
  0
TABLE
  2
STYLE
  5
3
330
0
100
AcDbSymbolTable
 70
     1
  0
STYLE
  5
11
330
3
100
AcDbSymbolTableRecord
100
AcDbTextStyleTableRecord
  2
Standard
 70
     0
 40
0.0
 41
1.0
 50
0.0
 71
     0
 42
3.5
  3
txt
  4

  0
ENDTAB
  0
TABLE
  2
VIEW
  5
6
330
0
100
AcDbSymbolTable
 70
     0
  0
ENDTAB
  0
TABLE
  2
UCS
  5
7
330
0
100
AcDbSymbolTable
 70
     0
  0
ENDTAB
  0
TABLE
  2
APPID
  5
9
330
0
100
AcDbSymbolTable
 70
     1
  0
APPID
  5
12
330
9
100
AcDbSymbolTableRecord
100
AcDbRegAppTableRecord
  2
ACAD
 70
     0
  0
ENDTAB
  0
TABLE
  2
DIMSTYLE
  5
A
330
0
100
AcDbSymbolTable
 70
     1
100
AcDbDimStyleTable
  0
DIMSTYLE
105
27
330
A
100
AcDbSymbolTableRecord
100
AcDbDimStyleTableRecord
  2
ISO-25
 70
     0
 41
2.5
 42
0.625
 43
3.75
 44
1.25
 73
     0
 74
     0
 77
     1
 78
     8
140
2.5
141
2.5
143
0.0393700787
147
0.625
171
     3
172
     1
178
     0
271
     2
272
     2
274
     3
278
    44
283
     0
284
     8
340
11
  0
ENDTAB
  0
TABLE
  2
BLOCK_RECORD
  5
1
330
0
100
AcDbSymbolTable
 70
     1
  0
BLOCK_RECORD
  5
1F
330
1
100
AcDbSymbolTableRecord
100
AcDbBlockTableRecord
  2
*Model_Space
340
22
  0
BLOCK_RECORD
  5
1B
330
1
100
AcDbSymbolTableRecord
100
AcDbBlockTableRecord
  2
*Paper_Space
340
1E
  0
BLOCK_RECORD
  5
23
330
1
100
AcDbSymbolTableRecord
100
AcDbBlockTableRecord
  2
*Paper_Space0
340
26
  0
ENDTAB
  0
ENDSEC
  0
SECTION
  2
BLOCKS
  0
BLOCK
  5
20
330
1F
100
AcDbEntity
  8
0
100
AcDbBlockBegin
  2
*Model_Space
 70
     0
 10
0.0
 20
0.0
 30
0.0
  3
*Model_Space
  1

  0
ENDBLK
  5
21
330
1F
100
AcDbEntity
  8
0
100
AcDbBlockEnd
  0
BLOCK
  5
1C
330
1B
100
AcDbEntity
 67
     1
  8
0
100
AcDbBlockBegin
  2
*Paper_Space
 70
     0
 10
0.0
 20
0.0
 30
0.0
  3
*Paper_Space
  1

  0
ENDBLK
  5
1D
330
1B
100
AcDbEntity
 67
     1
  8
0
100
AcDbBlockEnd
  0
BLOCK
  5
24
330
23
100
AcDbEntity
  8
0
100
AcDbBlockBegin
  2
*Paper_Space0
 70
     0
 10
0.0
 20
0.0
 30
0.0
  3
*Paper_Space0
  1

  0
ENDBLK
  5
25
330
23
100
AcDbEntity
  8
0
100
AcDbBlockEnd
  0
ENDSEC
  0
SECTION
  2
ENTITIES
  0
CIRCLE
  5
83
330
1F
100
AcDbEntity
  8
0
  6
Continuous
 62
     7
370
    25
100
AcDbCircle
 10
135.9944086538
 20
118.27271875
 30
0.0
 40
400.0
  0
CIRCLE
  5
84
330
1F
100
AcDbEntity
  8
0
  6
Continuous
 62
     7
370
    25
100
AcDbCircle
 10
135.9944086538
 20
118.27271875
 30
0.0
 40
352.6
  0
CIRCLE
  5
85
330
1F
100
AcDbEntity
  8
0
  6
Continuous
 62
     7
370
    25
100
AcDbCircle
 10
135.9944086538
 20
118.27271875
 30
0.0
 40
421.5
  0
CIRCLE
  5
86
330
1F
100
AcDbEntity
  8
0
  6
Continuous
 62
     7
370
    25
100
AcDbCircle
 10
135.9944086538
 20
118.27271875
 30
0.0
 40
452.5
  0
LINE
  5
87
330
1F
100
AcDbEntity
  8
0
  6
Continuous
 62
     7
370
    25
100
AcDbLine
 10
588.4944086538
 20
927.8086208506
 30
0.0
 11
588.4944086538
 21
987.8086208506
 31
0.0
  0
LINE
  5
88
330
1F
100
AcDbEntity
  8
0
  6
Continuous
 62
     7
370
    25
100
AcDbLine
 10
-316.5055913462
 20
987.8086208506
 30
0.0
 11
-316.5055913462
 21
927.8086208506
 31
0.0
  0
LINE
  5
89
330
1F
100
AcDbEntity
  8
0
  6
Continuous
 62
     7
370
    25
100
AcDbLine
 10
557.4944086538
 20
987.8086208506
 30
0.0
 11
535.9944086538
 21
1078.8086208506
 31
0.0
  0
LINE
  5
8A
330
1F
100
AcDbEntity
  8
0
  6
Continuous
 62
     7
370
    25
100
AcDbLine
 10
-264.0055913462
 20
1078.8086208506
 30
0.0
 11
-285.5055913462
 21
987.8086208506
 31
0.0
  0
LINE
  5
8B
330
1F
100
AcDbEntity
  8
0
  6
Continuous
 62
     7
370
    25
100
AcDbLine
 10
535.9944086538
 20
1078.8086208506
 30
0.0
 11
535.9944086538
 21
1390.8086208506
 31
0.0
  0
LINE
  5
8C
330
1F
100
AcDbEntity
  8
0
  6
Continuous
 62
     7
370
    25
100
AcDbLine
 10
-264.0055913462
 20
1390.8086208506
 30
0.0
 11
-264.0055913462
 21
1078.8086208506
 31
0.0
  0
LINE
  5
8D
330
1F
100
AcDbEntity
  8
0
  6
Continuous
 62
     7
370
    25
100
AcDbLine
 10
588.4944086538
 20
927.8086208506
 30
0.0
 11
-316.5055913462
 21
927.8086208506
 31
0.0
  0
LINE
  5
8E
330
1F
100
AcDbEntity
  8
0
  6
Continuous
 62
     7
370
    25
100
AcDbLine
 10
588.4944086538
 20
987.8086208506
 30
0.0
 11
-316.5055913462
 21
987.8086208506
 31
0.0
  0
LINE
  5
8F
330
1F
100
AcDbEntity
  8
0
  6
Continuous
 62
     7
370
    25
100
AcDbLine
 10
535.9944086538
 20
1078.8086208506
 30
0.0
 11
-264.0055913462
 21
1078.8086208506
 31
0.0
  0
LINE
  5
90
330
1F
100
AcDbEntity
  8
0
  6
Continuous
 62
     7
370
    25
100
AcDbLine
 10
535.9944086538
 20
1390.8086208506
 30
0.0
 11
-264.0055913462
 21
1390.8086208506
 31
0.0
  0
LINE
  5
91
330
1F
100
AcDbEntity
  8
0
  6
Continuous
 62
     7
370
    25
100
AcDbLine
 10
-762.9929591765
 20
570.77271875
 30
0.0
 11
-822.9929591765
 21
570.77271875
 31
0.0
  0
LINE
  5
92
330
1F
100
AcDbEntity
  8
0
  6
Continuous
 62
     7
370
    25
100
AcDbLine
 10
-822.9929591765
 20
-334.22728125
 30
0.0
 11
-762.9929591765
 21
-334.22728125
 31
0.0
  0
LINE
  5
93
330
1F
100
AcDbEntity
  8
0
  6
Continuous
 62
     7
370
    25
100
AcDbLine
 10
-822.9929591765
 20
539.77271875
 30
0.0
 11
-913.9929591765
 21
518.27271875
 31
0.0
  0
LINE
  5
94
330
1F
100
AcDbEntity
  8
0
  6
Continuous
 62
     7
370
    25
100
AcDbLine
 10
-913.9929591765
 20
-281.72728125
 30
0.0
 11
-822.9929591765
 21
-303.22728125
 31
0.0
  0
LINE
  5
95
330
1F
100
AcDbEntity
  8
0
  6
Continuous
 62
     7
370
    25
100
AcDbLine
 10
-913.9929591765
 20
518.27271875
 30
0.0
 11
-1225.9929591765
 21
518.27271875
 31
0.0
  0
LINE
  5
96
330
1F
100
AcDbEntity
  8
0
  6
Continuous
 62
     7
370
    25
100
AcDbLine
 10
-1225.9929591765
 20
-281.72728125
 30
0.0
 11
-913.9929591765
 21
-281.72728125
 31
0.0
  0
LINE
  5
97
330
1F
100
AcDbEntity
  8
0
  6
Continuous
 62
     7
370
    25
100
AcDbLine
 10
-762.9929591765
 20
570.77271875
 30
0.0
 11
-762.9929591765
 21
-334.22728125
 31
0.0
  0
LINE
  5
98
330
1F
100
AcDbEntity
  8
0
  6
Continuous
 62
     7
370
    25
100
AcDbLine
 10
-822.9929591765
 20
570.77271875
 30
0.0
 11
-822.9929591765
 21
-334.22728125
 31
0.0
  0
LINE
  5
99
330
1F
100
AcDbEntity
  8
0
  6
Continuous
 62
     7
370
    25
100
AcDbLine
 10
-913.9929591765
 20
518.27271875
 30
0.0
 11
-913.9929591765
 21
-281.72728125
 31
0.0
  0
LINE
  5
9A
330
1F
100
AcDbEntity
  8
0
  6
Continuous
 62
     7
370
    25
100
AcDbLine
 10
-1225.9929591765
 20
518.27271875
 30
0.0
 11
-1225.9929591765
 21
-281.72728125
 31
0.0
  0
LINE
  5
9B
330
1F
100
AcDbEntity
  8
0
  6
Continuous
 62
     7
370
    25
100
AcDbLine
 10
-316.5055913462
 20
-710.7776175256
 30
0.0
 11
-316.5055913462
 21
-770.7776175256
 31
0.0
  0
LINE
  5
9C
330
1F
100
AcDbEntity
  8
0
  6
Continuous
 62
     7
370
    25
100
AcDbLine
 10
588.4944086538
 20
-770.7776175256
 30
0.0
 11
588.4944086538
 21
-710.7776175256
 31
0.0
  0
LINE
  5
9D
330
1F
100
AcDbEntity
  8
0
  6
Continuous
 62
     7
370
    25
100
AcDbLine
 10
-285.5055913462
 20
-770.7776175256
 30
0.0
 11
-264.0055913462
 21
-861.7776175256
 31
0.0
  0
LINE
  5
9E
330
1F
100
AcDbEntity
  8
0
  6
Continuous
 62
     7
370
    25
100
AcDbLine
 10
535.9944086538
 20
-861.7776175256
 30
0.0
 11
557.4944086538
 21
-770.7776175256
 31
0.0
  0
LINE
  5
9F
330
1F
100
AcDbEntity
  8
0
  6
Continuous
 62
     7
370
    25
100
AcDbLine
 10
-264.0055913462
 20
-861.7776175256
 30
0.0
 11
-264.0055913462
 21
-1173.7776175256
 31
0.0
  0
LINE
  5
A0
330
1F
100
AcDbEntity
  8
0
  6
Continuous
 62
     7
370
    25
100
AcDbLine
 10
535.9944086538
 20
-1173.7776175256
 30
0.0
 11
535.9944086538
 21
-861.7776175256
 31
0.0
  0
LINE
  5
A1
330
1F
100
AcDbEntity
  8
0
  6
Continuous
 62
     7
370
    25
100
AcDbLine
 10
-316.5055913462
 20
-710.7776175256
 30
0.0
 11
588.4944086538
 21
-710.7776175256
 31
0.0
  0
LINE
  5
A2
330
1F
100
AcDbEntity
  8
0
  6
Continuous
 62
     7
370
    25
100
AcDbLine
 10
-316.5055913462
 20
-770.7776175256
 30
0.0
 11
588.4944086538
 21
-770.7776175256
 31
0.0
  0
LINE
  5
A3
330
1F
100
AcDbEntity
  8
0
  6
Continuous
 62
     7
370
    25
100
AcDbLine
 10
-264.0055913462
 20
-861.7776175256
 30
0.0
 11
535.9944086538
 21
-861.7776175256
 31
0.0
  0
LINE
  5
A4
330
1F
100
AcDbEntity
  8
0
  6
Continuous
 62
     7
370
    25
100
AcDbLine
 10
-264.0055913462
 20
-1173.7776175256
 30
0.0
 11
535.9944086538
 21
-1173.7776175256
 31
0.0
  0
LINE
  5
A5
330
1F
100
AcDbEntity
  8
0
  6
Continuous
 62
     7
370
    25
100
AcDbLine
 10
1022.3456670735
 20
-334.22728125
 30
0.0
 11
1082.3456670735
 21
-334.22728125
 31
0.0
  0
LINE
  5
A6
330
1F
100
AcDbEntity
  8
0
  6
Continuous
 62
     7
370
    25
100
AcDbLine
 10
1082.3456670735
 20
570.77271875
 30
0.0
 11
1022.3456670735
 21
570.77271875
 31
0.0
  0
LINE
  5
A7
330
1F
100
AcDbEntity
  8
0
  6
Continuous
 62
     7
370
    25
100
AcDbLine
 10
1082.3456670735
 20
-303.22728125
 30
0.0
 11
1173.3456670735
 21
-281.72728125
 31
0.0
  0
LINE
  5
A8
330
1F
100
AcDbEntity
  8
0
  6
Continuous
 62
     7
370
    25
100
AcDbLine
 10
1173.3456670735
 20
518.27271875
 30
0.0
 11
1082.3456670735
 21
539.77271875
 31
0.0
  0
LINE
  5
A9
330
1F
100
AcDbEntity
  8
0
  6
Continuous
 62
     7
370
    25
100
AcDbLine
 10
1173.3456670735
 20
-281.72728125
 30
0.0
 11
1485.3456670735
 21
-281.72728125
 31
0.0
  0
LINE
  5
AA
330
1F
100
AcDbEntity
  8
0
  6
Continuous
 62
     7
370
    25
100
AcDbLine
 10
1485.3456670735
 20
518.27271875
 30
0.0
 11
1173.3456670735
 21
518.27271875
 31
0.0
  0
LINE
  5
AB
330
1F
100
AcDbEntity
  8
0
  6
Continuous
 62
     7
370
    25
100
AcDbLine
 10
1022.3456670735
 20
118.27271875
 30
0.0
 11
1022.3456670735
 21
570.77271875
 31
0.0
  0
LINE
  5
AC
330
1F
100
AcDbEntity
  8
0
  6
Continuous
 62
     7
370
    25
100
AcDbLine
 10
1022.3456670735
 20
-334.22728125
 30
0.0
 11
1022.3456670735
 21
118.27271875
 31
0.0
  0
LINE
  5
AD
330
1F
100
AcDbEntity
  8
0
  6
Continuous
 62
     7
370
    25
100
AcDbLine
 10
1082.3456670735
 20
118.27271875
 30
0.0
 11
1082.3456670735
 21
570.77271875
 31
0.0
  0
LINE
  5
AE
330
1F
100
AcDbEntity
  8
0
  6
Continuous
 62
     7
370
    25
100
AcDbLine
 10
1082.3456670735
 20
-334.22728125
 30
0.0
 11
1082.3456670735
 21
118.27271875
 31
0.0
  0
LINE
  5
AF
330
1F
100
AcDbEntity
  8
0
  6
Continuous
 62
     7
370
    25
100
AcDbLine
 10
1173.3456670735
 20
118.27271875
 30
0.0
 11
1173.3456670735
 21
518.27271875
 31
0.0
  0
LINE
  5
B0
330
1F
100
AcDbEntity
  8
0
  6
Continuous
 62
     7
370
    25
100
AcDbLine
 10
1173.3456670735
 20
-281.72728125
 30
0.0
 11
1173.3456670735
 21
118.27271875
 31
0.0
  0
LINE
  5
B1
330
1F
100
AcDbEntity
  8
0
  6
Continuous
 62
     7
370
    25
100
AcDbLine
 10
1485.3456670735
 20
118.27271875
 30
0.0
 11
1485.3456670735
 21
518.27271875
 31
0.0
  0
LINE
  5
B2
330
1F
100
AcDbEntity
  8
0
  6
Continuous
 62
     7
370
    25
100
AcDbLine
 10
1485.3456670735
 20
-281.72728125
 30
0.0
 11
1485.3456670735
 21
118.27271875
 31
0.0
  0
LINE
  5
B3
330
1F
100
AcDbEntity
  8
0
  6
Continuous
 62
     7
370
    25
100
AcDbLine
 10
1451.4271130461
 20
-652.5669241629
 30
0.0
 11
1230.8097973159
 21
-525.2072587186
 31
0.0
  0
LINE
  5
B4
330
1F
100
AcDbEntity
  8
0
  6
Continuous
 62
     7
370
    25
100
AcDbLine
 10
830.8423042615
 20
-1218.0463486231
 30
0.0
 11
1051.4596199917
 21
-1345.4060140675
 31
0.0
  0
LINE
  5
B5
330
1F
100
AcDbEntity
  8
0
  6
Continuous
 62
     7
370
    25
100
AcDbLine
 10
1488.3464591442
 20
-655.89567276
 30
0.0
 11
1434.599764542
 21
-642.8527026445
 31
0.0
  0
LINE
  5
B6
330
1F
100
AcDbEntity
  8
0
  6
Continuous
 62
     7
370
    25
100
AcDbLine
 10
1034.6322714876
 20
-1335.6917925491
 30
0.0
 11
1072.80491791
 21
-1375.7127285101
 31
0.0
  0
LINE
  5
B7
330
1F
100
AcDbEntity
  8
0
  6
Continuous
 62
     7
370
    25
100
AcDbLine
 10
1584.448103737
 20
-668.7381713305
 30
0.0
 11
1542.0216968658
 21
-644.2459279759
 31
0.0
  0
LINE
  5
B8
330
1F
100
AcDbEntity
  8
0
  6
Continuous
 62
     7
370
    25
100
AcDbLine
 10
1089.5584703479
 20
-1428.0201484304
 30
0.0
 11
1131.9848772191
 21
-1452.5123917851
 31
0.0
  0
LWPOLYLINE
  5
B9
330
1F
100
AcDbEntity
  8
0
  6
Continuous
 62
     7
370
    25
100
AcDbPolyline
 90
      213
 70
   128
 43
0.0
 10
747.9833383141
 20
-1034.9084260354
 10
748.1075525071
 20
-1025.1579900844
 10
748.4800859857
 20
-1015.2727035498
 10
749.1006115435
 20
-1005.2612489454
 10
749.9685841562
 20
-995.1324196019
 10
751.0832414601
 20
-984.8951119434
 10
752.4436044215
 20
-974.5583176736
 10
754.048478197
 20
-964.1311158777
 10
755.8964531827
 20
-953.6226650483
 10
757.9859062522
 20
-943.0421950415
 10
760.3150021825
 20
-932.3989989695
 10
762.8816952659
 20
-921.7024250386
 10
765.6837311065
 20
-910.9618683382
 10
768.7186486006
 20
-900.1867625892
 10
771.9837820984
 20
-889.3865718577
 10
775.476263745
 20
-878.5707822426
 10
779.1930259994
 20
-867.7488935437
 10
783.1308043293
 20
-856.9304109179
 10
787.2861400775
 20
-846.1248365304
 10
791.6553835005
 20
-835.3416612088
 10
796.2346969741
 20
-824.5903561069
 10
801.0200583635
 20
-813.880364386
 10
806.0072645568
 20
-803.2210929208
 10
811.1919351562
 20
-792.6219040372
 10
816.5695163257
 20
-782.0921072887
 10
822.1352847905
 20
-771.6409512798
 10
827.884351986
 20
-761.277615543
 10
833.8116683515
 20
-751.0112024756
 10
839.912027765
 20
-740.8507293452
 10
846.1800721162
 20
-730.8051203696
 10
852.6102960127
 20
-720.8831988781
 10
859.1970516154
 20
-711.0936795621
 10
865.9345535989
 20
-701.4451608206
 10
872.8168842336
 20
-691.9461172079
 10
879.8379985828
 20
-682.6048919904
 10
886.9917298122
 20
-673.4296898181
 10
894.2717946067
 20
-664.4285695188
 10
901.671798689
 20
-655.6094370193
 10
909.1852424358
 20
-646.9800384015
 10
916.8055265868
 20
-638.5479530992
 10
924.5259580407
 20
-630.3205872404
 10
932.3397557343
 20
-622.3051671425
 10
940.2400565983
 20
-614.5087329653
 10
948.2199215851
 20
-606.9381325272
 10
956.2723417642
 20
-599.6000152909
 10
964.3902444775
 20
-592.5008265228
 10
972.5664995522
 20
-585.646801632
 10
980.7939255626
 20
-579.0439606933
 10
989.0652961387
 20
-572.6981031602
 10
997.3733463123
 20
-566.6148027706
 10
1005.7107788989
 20
-560.7994026514
 10
1014.0702709065
 20
-555.2570106253
 10
1022.4444799677
 20
-549.9924947249
 10
1030.8260507887
 20
-545.0104789165
 10
1039.2076216097
 20
-540.3153390391
 10
1047.5818306708
 20
-535.9111989606
 10
1055.9413226784
 20
-531.8019269561
 10
1064.2787552651
 20
-527.9911323102
 10
1072.5868054387
 20
-524.4821621465
 10
1080.8581760147
 20
-521.2780984883
 10
1089.0856020252
 20
-518.3817555511
 10
1097.2618570998
 20
-515.795677271
 10
1105.3797598132
 20
-513.5221350705
 10
1113.4321799922
 20
-511.5631258629
 10
1121.4120449791
 20
-509.9203702989
 10
1129.312345843
 20
-508.5953112551
 10
1137.1261435366
 20
-507.5891125665
 10
1144.8465749906
 20
-506.9026580046
 10
1152.4668591415
 20
-506.536550501
 10
1159.9803028883
 20
-506.4911116178
 10
1167.3803069706
 20
-506.7663812652
 10
1174.6603717652
 20
-507.3621176663
 10
1181.8141029946
 20
-508.2777975699
 10
1188.8352173438
 20
-509.5126167097
 10
1195.7175479785
 20
-511.0654905105
 10
1202.455049962
 20
-512.9350550415
 10
1209.0418055646
 20
-515.1196682137
 10
1215.4720294611
 20
-517.6174112223
 10
1221.7400738123
 20
-520.4260902324
 10
1227.8404332258
 20
-523.5432383054
 10
1233.7677495913
 20
-526.9661175659
 10
1239.5168167869
 20
-530.6917216069
 10
1245.0825852517
 20
-534.7167781296
 10
1250.4601664211
 20
-539.0377518184
 10
1255.6448370205
 20
-543.6508474456
 10
1260.6320432138
 20
-548.5520132046
 10
1265.4174046033
 20
-553.7369442695
 10
1269.9967180768
 20
-559.2010865753
 10
1274.3659614999
 20
-564.9396408184
 10
1278.5212972481
 20
-570.9475666719
 10
1282.4590755779
 20
-577.2195872122
 10
1286.1758378324
 20
-583.7501935546
 10
1289.668319479
 20
-590.5336496912
 10
1292.9334529767
 20
-597.5639975296
 10
1295.9683704709
 20
-604.8350621254
 10
1298.7704063115
 20
-612.3404571066
 10
1301.3370993948
 20
-620.0735902821
 10
1303.6661953252
 20
-628.0276694324
 10
1305.7556483947
 20
-636.1957082752
 10
1307.6036233803
 20
-644.5705326016
 10
1309.2084971558
 20
-653.1447865775
 10
1310.5688601173
 20
-661.9109392041
 10
1311.6835174212
 20
-670.8612909331
 10
1312.5514900339
 20
-679.987980429
 10
1313.1720155917
 20
-689.2829914743
 10
1313.5445490702
 20
-698.73816001
 10
1313.6687632633
 20
-708.3451813063
 10
1313.5445490702
 20
-718.0956172573
 10
1313.1720155917
 20
-727.9809037919
 10
1312.5514900339
 20
-737.9923583963
 10
1311.6835174212
 20
-748.1211877398
 10
1310.5688601173
 20
-758.3584953982
 10
1309.2084971558
 20
-768.6952896681
 10
1307.6036233803
 20
-779.122491464
 10
1305.7556483947
 20
-789.6309422933
 10
1303.6661953252
 20
-800.2114123002
 10
1301.3370993948
 20
-810.8546083722
 10
1298.7704063115
 20
-821.5511823031
 10
1295.9683704709
 20
-832.2917390035
 10
1292.9334529767
 20
-843.0668447525
 10
1289.668319479
 20
-853.867035484
 10
1286.1758378324
 20
-864.6828250991
 10
1282.4590755779
 20
-875.504713798
 10
1278.5212972481
 20
-886.3231964238
 10
1274.3659614999
 20
-897.1287708112
 10
1269.9967180768
 20
-907.9119461329
 10
1265.4174046033
 20
-918.6632512348
 10
1260.6320432138
 20
-929.3732429557
 10
1255.6448370205
 20
-940.0325144209
 10
1250.4601664211
 20
-950.6317033045
 10
1245.0825852517
 20
-961.161500053
 10
1239.5168167869
 20
-971.6126560619
 10
1233.7677495913
 20
-981.9759917987
 10
1227.8404332258
 20
-992.2424048661
 10
1221.7400738123
 20
-1002.4028779965
 10
1215.4720294611
 20
-1012.4484869721
 10
1209.0418055646
 20
-1022.3704084636
 10
1202.455049962
 20
-1032.1599277796
 10
1195.7175479785
 20
-1041.8084465211
 10
1188.8352173438
 20
-1051.3074901338
 10
1181.8141029946
 20
-1060.6487153513
 10
1174.6603717652
 20
-1069.8239175236
 10
1167.3803069706
 20
-1078.8250378229
 10
1159.9803028883
 20
-1087.6441703224
 10
1152.4668591415
 20
-1096.2735689402
 10
1144.8465749906
 20
-1104.7056542425
 10
1137.1261435366
 20
-1112.9330201013
 10
1129.312345843
 20
-1120.9484401992
 10
1121.4120449791
 20
-1128.7448743764
 10
1113.4321799922
 20
-1136.3154748145
 10
1105.3797598131
 20
-1143.6535920507
 10
1097.2618570998
 20
-1150.7527808188
 10
1089.0856020252
 20
-1157.6068057097
 10
1080.8581760147
 20
-1164.2096466484
 10
1072.5868054387
 20
-1170.5555041814
 10
1064.278755265
 20
-1176.638804571
 10
1055.9413226784
 20
-1182.4542046903
 10
1047.5818306708
 20
-1187.9965967163
 10
1039.2076216097
 20
-1193.2611126168
 10
1030.8260507887
 20
-1198.2431284251
 10
1022.4444799677
 20
-1202.9382683026
 10
1014.0702709065
 20
-1207.3424083811
 10
1005.7107788989
 20
-1211.4516803856
 10
997.3733463123
 20
-1215.2624750315
 10
989.0652961387
 20
-1218.7714451952
 10
980.7939255626
 20
-1221.9755088534
 10
972.5664995522
 20
-1224.8718517906
 10
964.3902444775
 20
-1227.4579300707
 10
956.2723417642
 20
-1229.7314722712
 10
948.2199215851
 20
-1231.6904814788
 10
940.2400565983
 20
-1233.3332370428
 10
932.3397557343
 20
-1234.6582960866
 10
924.5259580407
 20
-1235.6644947752
 10
916.8055265868
 20
-1236.3509493371
 10
909.1852424358
 20
-1236.7170568407
 10
901.671798689
 20
-1236.7624957239
 10
894.2717946067
 20
-1236.4872260765
 10
886.9917298122
 20
-1235.8914896754
 10
879.8379985828
 20
-1234.9758097717
 10
872.8168842336
 20
-1233.740990632
 10
865.9345535989
 20
-1232.1881168312
 10
859.1970516154
 20
-1230.3185523002
 10
852.6102960127
 20
-1228.133939128
 10
846.1800721162
 20
-1225.6361961193
 10
839.912027765
 20
-1222.8275171092
 10
833.8116683515
 20
-1219.7103690363
 10
827.884351986
 20
-1216.2874897758
 10
822.1352847905
 20
-1212.5618857348
 10
816.5695163257
 20
-1208.5368292121
 10
811.1919351562
 20
-1204.2158555232
 10
806.0072645568
 20
-1199.6027598961
 10
801.0200583635
 20
-1194.7015941371
 10
796.2346969741
 20
-1189.5166630722
 10
791.6553835005
 20
-1184.0525207664
 10
787.2861400775
 20
-1178.3139665232
 10
783.1308043293
 20
-1172.3060406698
 10
779.1930259994
 20
-1166.0340201295
 10
775.476263745
 20
-1159.5034137871
 10
771.9837820984
 20
-1152.7199576505
 10
768.7186486006
 20
-1145.6896098121
 10
765.6837311065
 20
-1138.4185452163
 10
762.8816952659
 20
-1130.9131502351
 10
760.3150021825
 20
-1123.1800170596
 10
757.9859062522
 20
-1115.2259379093
 10
755.8964531827
 20
-1107.0578990665
 10
754.048478197
 20
-1098.68307474
 10
752.4436044215
 20
-1090.1088207642
 10
751.0832414601
 20
-1081.3426681376
 10
749.9685841562
 20
-1072.3923164086
 10
749.1006115435
 20
-1063.2656269126
 10
748.4800859857
 20
-1053.9706158673
 10
748.1075525071
 20
-1044.5154473317
 10
747.9833383141
 20
-1034.9084260354
  0
LWPOLYLINE
  5
BA
330
1F
100
AcDbEntity
  8
0
  6
Continuous
 62
     7
370
    25
100
AcDbPolyline
 90
      200
 70
   128
 43
0.0
 10
781.5001997423
 20
-1015.5595537852
 10
781.6244664576
 20
-1006.3988426741
 10
781.9971427317
 20
-997.1037878636
 10
782.6178570728
 20
-987.6836548664
 10
783.4859907393
 20
-978.1478338759
 10
784.6006783568
 20
-968.505830406
 10
785.9608087803
 20
-958.7672558153
 10
787.5650262023
 20
-948.9418177269
 10
789.411731504
 20
-939.039310351
 10
791.4990838493
 20
-929.0696047224
 10
793.8250025201
 20
-919.0426388604
 10
796.3871689899
 20
-908.9684078627
 10
799.1830292357
 20
-898.8569539419
 10
802.2097962831
 20
-888.7183564152
 10
805.4644529848
 20
-878.5627216569
 10
808.9437550282
 20
-868.4001730247
 10
812.6442341696
 20
-858.2408407682
 10
816.5622016906
 20
-848.0948519306
 10
820.6937520762
 20
-837.9723202542
 10
825.034766907
 20
-827.8833360988
 10
829.5809189651
 20
-817.8379563832
 10
834.3276765472
 20
-807.8461945604
 10
839.2703079821
 20
-797.9180106358
 10
844.4038863473
 20
-788.0633012391
 10
849.7232943803
 20
-778.2918897589
 10
855.2232295794
 20
-768.6135165508
 10
860.8982094897
 20
-759.0378292275
 10
866.7425771677
 20
-749.5743730425
 10
872.7505068206
 20
-740.2325813747
 10
878.9160096135
 20
-731.0217663252
 10
885.2329396392
 20
-721.9511094348
 10
891.6950000444
 20
-713.0296525315
 10
898.2957493067
 20
-704.2662887175
 10
905.0286076557
 20
-695.6697535046
 10
911.8868636319
 20
-687.2486161059
 10
918.8636807765
 20
-679.0112708943
 10
925.9521044464
 20
-670.9659290348
 10
933.1450687468
 20
-663.120610299
 10
940.4354035745
 20
-655.4831350713
 10
947.815841765
 20
-648.0611165531
 10
955.2790263372
 20
-640.8619531738
 10
962.8175178263
 20
-633.892821216
 10
970.4238017002
 20
-627.1606676622
 10
978.0902958495
 20
-620.6722032693
 10
985.8093581462
 20
-614.4338958797
 10
993.5732940612
 20
-608.451963974
 10
1001.3743643342
 20
-602.7323704719
 10
1009.2047926888
 20
-597.2808167886
 10
1017.0567735836
 20
-592.1027371515
 10
1024.9224799935
 20
-587.2032931829
 10
1032.7940712111
 20
-582.587368755
 10
1040.6637006631
 20
-578.2595651218
 10
1048.5235237318
 20
-574.224196332
 10
1056.3657055746
 20
-570.4852849291
 10
1064.1824289341
 20
-567.0465579411
 10
1071.9659019304
 20
-563.911443166
 10
1079.7083658284
 20
-561.0830657543
 10
1087.4021027717
 20
-558.5642450942
 10
1095.0394434759
 20
-556.3574920009
 10
1102.6127748739
 20
-554.4650062138
 10
1110.1145477041
 20
-552.8886742039
 10
1117.5372840362
 20
-551.6300672933
 10
1124.8735847253
 20
-550.6904400886
 10
1132.1161367872
 20
-550.0707292308
 10
1139.2577206886
 20
-549.7715524611
 10
1146.2912175433
 20
-549.7932080054
 10
1153.2096162087
 20
-550.135674277
 10
1160.0060202745
 20
-550.7986098981
 10
1166.6736549373
 20
-551.7813540399
 10
1173.205873754
 20
-553.0829270819
 10
1179.5961652667
 20
-554.7020315876
 10
1185.8381594939
 20
-556.6370535984
 10
1191.92563428
 20
-558.8860642425
 10
1197.8525214978
 20
-561.446821657
 10
1203.6129130971
 20
-564.3167732232
 10
1209.2010669943
 20
-567.4930581111
 10
1214.6114127962
 20
-570.9725101307
 10
1219.8385573523
 20
-574.7516608886
 10
1224.8772901313
 20
-578.8267432453
 10
1229.7225884147
 20
-583.1936950698
 10
1234.3696223039
 20
-587.8481632898
 10
1238.8137595345
 20
-592.78550823
 10
1243.0505700937
 20
-598.0008082377
 10
1247.0758306366
 20
-603.4888645883
 10
1250.8855286961
 20
-609.2442066679
 10
1254.4758666823
 20
-615.2610974265
 10
1257.8432656681
 20
-621.5335390964
 10
1260.984368957
 20
-628.0552791714
 10
1263.896045429
 20
-634.8198166391
 10
1266.5753926616
 20
-641.8204084615
 10
1269.0197398232
 20
-649.0500762963
 10
1271.2266503354
 20
-656.5016134536
 10
1273.1939243018
 20
-664.1675920789
 10
1274.9196007011
 20
-672.0403705581
 10
1276.4019593412
 20
-680.1121011343
 10
1277.6395225751
 20
-688.374737731
 10
1278.6310567726
 20
-696.8200439724
 10
1279.375573551
 20
-705.4396013934
 10
1279.8723307598
 20
-714.2248178319
 10
1280.1208332205
 20
-723.166935993
 10
1280.1208332205
 20
-732.2570421788
 10
1279.8723307598
 20
-741.4860751739
 10
1279.375573551
 20
-750.8448352774
 10
1278.6310567726
 20
-760.3239934737
 10
1277.6395225751
 20
-769.9141007317
 10
1276.4019593412
 20
-779.6055974241
 10
1274.919600701
 20
-789.3888228561
 10
1273.1939243018
 20
-799.2540248959
 10
1271.2266503354
 20
-809.1913696955
 10
1269.0197398232
 20
-819.1909514935
 10
1266.5753926616
 20
-829.2428024893
 10
1263.896045429
 20
-839.3369027792
 10
1260.984368957
 20
-849.4631903446
 10
1257.8432656681
 20
-859.6115710817
 10
1254.4758666823
 20
-869.771928864
 10
1250.8855286961
 20
-879.9341356259
 10
1247.0758306366
 20
-890.0880614585
 10
1243.0505700937
 20
-900.223584708
 10
1238.8137595345
 20
-910.3306020642
 10
1234.3696223039
 20
-920.3990386324
 10
1229.7225884147
 20
-930.4188579761
 10
1224.8772901313
 20
-940.3800721215
 10
1219.8385573523
 20
-950.2727515137
 10
1214.6114127962
 20
-960.0870349147
 10
1209.2010669943
 20
-969.8131392335
 10
1203.6129130971
 20
-979.4413692776
 10
1197.8525214978
 20
-988.962127418
 10
1191.92563428
 20
-998.3659231559
 10
1185.8381594939
 20
-1007.6433825832
 10
1179.5961652667
 20
-1016.7852577267
 10
1173.205873754
 20
-1025.7824357662
 10
1166.6736549373
 20
-1034.6259481192
 10
1160.0060202745
 20
-1043.3069793802
 10
1153.2096162087
 20
-1051.8168761083
 10
1146.2912175433
 20
-1060.1471554536
 10
1139.2577206886
 20
-1068.2895136123
 10
1132.1161367872
 20
-1076.2358341048
 10
1124.8735847253
 20
-1083.9781958659
 10
1117.5372840362
 20
-1091.5088811412
 10
1110.1145477041
 20
-1098.8203831798
 10
1102.6127748739
 20
-1105.9054137174
 10
1095.0394434759
 20
-1112.7569102414
 10
1087.4021027717
 20
-1119.3680430313
 10
1079.7083658284
 20
-1125.7322219659
 10
1071.9659019304
 20
-1131.8431030934
 10
1064.1824289341
 20
-1137.6945949545
 10
1056.3657055746
 20
-1143.280864655
 10
1048.5235237318
 20
-1148.5963436796
 10
1040.6637006631
 20
-1153.6357334433
 10
1032.7940712111
 20
-1158.3940105727
 10
1024.9224799935
 20
-1162.8664319138
 10
1017.0567735836
 20
-1167.0485392597
 10
1009.2047926888
 20
-1170.9361637949
 10
1001.3743643342
 20
-1174.5254302505
 10
993.5732940612
 20
-1177.8127607679
 10
985.8093581462
 20
-1180.7948784644
 10
978.0902958495
 20
-1183.4688107003
 10
970.4238017002
 20
-1185.8318920417
 10
962.8175178263
 20
-1187.8817669179
 10
955.2790263372
 20
-1189.6163919688
 10
947.815841765
 20
-1191.0340380827
 10
940.4354035744
 20
-1192.1332921189
 10
933.1450687468
 20
-1192.9130583171
 10
925.9521044464
 20
-1193.3725593895
 10
918.8636807765
 20
-1193.5113372954
 10
911.8868636319
 20
-1193.3292536979
 10
905.0286076557
 20
-1192.826490102
 10
898.2957493067
 20
-1192.0035476733
 10
891.6950000443
 20
-1190.8612467387
 10
885.2329396392
 20
-1189.4007259687
 10
878.9160096135
 20
-1187.6234412421
 10
872.7505068206
 20
-1185.531164195
 10
866.7425771677
 20
-1183.1259804546
 10
860.8982094897
 20
-1180.4102875605
 10
855.2232295794
 20
-1177.3867925743
 10
849.7232943803
 20
-1174.0585093815
 10
844.4038863473
 20
-1170.4287556874
 10
839.2703079821
 20
-1166.5011497092
 10
834.3276765472
 20
-1162.2796065701
 10
829.5809189651
 20
-1157.768334396
 10
825.034766907
 20
-1152.9718301212
 10
820.6937520762
 20
-1147.8948750055
 10
816.5622016906
 20
-1142.542529868
 10
812.6442341696
 20
-1136.9201300429
 10
808.9437550282
 20
-1131.0332800606
 10
805.4644529848
 20
-1124.8878480611
 10
802.2097962831
 20
-1118.4899599448
 10
799.1830292357
 20
-1111.8459932655
 10
796.3871689899
 20
-1104.9625708739
 10
793.82500252
 20
-1097.846554315
 10
791.4990838493
 20
-1090.505036989
 10
789.411731504
 20
-1082.9453370798
 10
787.5650262023
 20
-1075.1749902609
 10
785.9608087803
 20
-1067.2017421829
 10
784.6006783568
 20
-1059.0335407529
 10
783.4859907393
 20
-1050.6785282117
 10
782.6178570728
 20
-1042.1450330176
 10
781.9971427317
 20
-1033.441561544
 10
781.6244664576
 20
-1024.5767896007
 10
781.5001997423
 20
-1015.5595537852
  0
LWPOLYLINE
  5
BB
330
1F
100
AcDbEntity
  8
0
  6
Continuous
 62
     7
370
    25
100
AcDbPolyline
 90
      108
 70
   128
 43
0.0
 10
1451.4271130461
 20
-652.5669241629
 10
1454.3850653215
 20
-654.3257830103
 10
1460.1341325171
 20
-658.0513870512
 10
1465.6999009819
 20
-662.0764435739
 10
1471.0774821513
 20
-666.3974172628
 10
1476.2621527507
 20
-671.0105128899
 10
1481.249358944
 20
-675.911678649
 10
1486.0347203335
 20
-681.0966097138
 10
1490.614033807
 20
-686.5607520196
 10
1494.9832772301
 20
-692.2993062628
 10
1499.1386129783
 20
-698.3072321162
 10
1503.0763913081
 20
-704.5792526565
 10
1506.7931535626
 20
-711.1098589989
 10
1510.2856352092
 20
-717.8933151356
 10
1513.5507687069
 20
-724.9236629739
 10
1516.5856862011
 20
-732.1947275698
 10
1519.3877220417
 20
-739.7001225509
 10
1521.954415125
 20
-747.4332557264
 10
1524.2835110554
 20
-755.3873348767
 10
1526.3729641249
 20
-763.5553737196
 10
1528.2209391105
 20
-771.930198046
 10
1529.825812886
 20
-780.5044520218
 10
1531.1861758475
 20
-789.2706046484
 10
1532.3008331514
 20
-798.2209563774
 10
1533.1688057641
 20
-807.3476458734
 10
1533.7893313219
 20
-816.6426569187
 10
1534.1618648004
 20
-826.0978254543
 10
1534.2860789935
 20
-835.7048467506
 10
1534.1618648004
 20
-845.4552827016
 10
1533.7893313219
 20
-855.3405692363
 10
1533.1688057641
 20
-865.3520238407
 10
1532.3008331514
 20
-875.4808531842
 10
1531.1861758475
 20
-885.7181608426
 10
1529.825812886
 20
-896.0549551124
 10
1528.2209391105
 20
-906.4821569084
 10
1526.3729641249
 20
-916.9906077377
 10
1524.2835110554
 20
-927.5710777445
 10
1521.954415125
 20
-938.2142738165
 10
1519.3877220417
 20
-948.9108477475
 10
1516.5856862011
 20
-959.6514044478
 10
1513.5507687069
 20
-970.4265101968
 10
1510.2856352092
 20
-981.2267009283
 10
1506.7931535626
 20
-992.0424905435
 10
1503.0763913081
 20
-1002.8643792423
 10
1499.1386129783
 20
-1013.6828618681
 10
1494.9832772301
 20
-1024.4884362556
 10
1490.614033807
 20
-1035.2716115772
 10
1486.0347203335
 20
-1046.0229166792
 10
1481.249358944
 20
-1056.7329084001
 10
1476.2621527507
 20
-1067.3921798652
 10
1471.0774821513
 20
-1077.9913687488
 10
1465.6999009819
 20
-1088.5211654974
 10
1460.1341325171
 20
-1098.9723215062
 10
1454.3850653215
 20
-1109.335657243
 10
1448.457748956
 20
-1119.6020703104
 10
1442.3573895425
 20
-1129.7625434408
 10
1436.0893451913
 20
-1139.8081524165
 10
1429.6591212948
 20
-1149.730073908
 10
1423.0723656922
 20
-1159.5195932239
 10
1416.3348637087
 20
-1169.1681119654
 10
1409.452533074
 20
-1178.6671555781
 10
1402.4314187248
 20
-1188.0083807957
 10
1395.2776874954
 20
-1197.1835829679
 10
1387.9976227008
 20
-1206.1847032672
 10
1380.5976186185
 20
-1215.0038357668
 10
1373.0841748717
 20
-1223.6332343845
 10
1365.4638907208
 20
-1232.0653196868
 10
1357.7434592668
 20
-1240.2926855456
 10
1349.9296615732
 20
-1248.3081056435
 10
1342.0293607093
 20
-1256.1045398208
 10
1334.0494957224
 20
-1263.6751402588
 10
1325.9970755434
 20
-1271.0132574951
 10
1317.87917283
 20
-1278.1124462632
 10
1309.7029177554
 20
-1284.9664711541
 10
1301.4754917449
 20
-1291.5693120927
 10
1293.2041211689
 20
-1297.9151696258
 10
1284.8960709953
 20
-1303.9984700154
 10
1276.5586384086
 20
-1309.8138701346
 10
1268.199146401
 20
-1315.3562621607
 10
1259.8249373399
 20
-1320.6207780611
 10
1251.4433665189
 20
-1325.6027938695
 10
1243.0617956979
 20
-1330.2979337469
 10
1234.6875866367
 20
-1334.7020738254
 10
1226.3280946291
 20
-1338.8113458299
 10
1217.9906620425
 20
-1342.6221404759
 10
1209.6826118689
 20
-1346.1311106395
 10
1201.4112412928
 20
-1349.3351742978
 10
1193.1838152824
 20
-1352.231517235
 10
1185.0075602077
 20
-1354.817595515
 10
1176.8896574944
 20
-1357.0911377155
 10
1168.8372373153
 20
-1359.0501469231
 10
1160.8573723285
 20
-1360.6929024871
 10
1152.9570714645
 20
-1362.0179615309
 10
1145.1432737709
 20
-1363.0241602195
 10
1137.422842317
 20
-1363.7106147814
 10
1129.802558166
 20
-1364.076722285
 10
1122.2891144192
 20
-1364.1221611682
 10
1114.8891103369
 20
-1363.8468915209
 10
1107.6090455424
 20
-1363.2511551197
 10
1100.455314313
 20
-1362.3354752161
 10
1093.4341999638
 20
-1361.1006560764
 10
1086.5518693291
 20
-1359.5477822755
 10
1079.8143673456
 20
-1357.6782177445
 10
1073.2276117429
 20
-1355.4936045724
 10
1066.7973878464
 20
-1352.9958615637
 10
1060.5293434952
 20
-1350.1871825536
 10
1054.4289840817
 20
-1347.0700344806
 10
1051.4596199917
 20
-1345.4060140675
  0
LWPOLYLINE
  5
BC
330
1F
100
AcDbEntity
  8
0
  6
Continuous
 62
     7
370
    25
100
AcDbPolyline
 90
       51
 70
   128
 43
0.0
 10
1036.2904211616
 20
-1156.3154243674
 10
1036.3556853464
 20
-1153.4520452232
 10
1036.7283616205
 20
-1144.1569904127
 10
1037.3490759616
 20
-1134.7368574155
 10
1038.2172096281
 20
-1125.201036425
 10
1039.3318972456
 20
-1115.5590329551
 10
1040.6920276691
 20
-1105.8204583644
 10
1042.2962450911
 20
-1095.995020276
 10
1044.1429503928
 20
-1086.0925129001
 10
1046.2303027381
 20
-1076.1228072714
 10
1048.5562214089
 20
-1066.0958414095
 10
1051.1183878788
 20
-1056.0216104118
 10
1053.9142481245
 20
-1045.910156491
 10
1056.9410151719
 20
-1035.7715589642
 10
1060.1956718736
 20
-1025.615924206
 10
1063.6749739171
 20
-1015.4533755738
 10
1067.3754530584
 20
-1005.2940433173
 10
1071.2934205794
 20
-995.1480544796
 10
1075.424970965
 20
-985.0255228033
 10
1079.7659857958
 20
-974.9365386479
 10
1084.3121378539
 20
-964.8911589323
 10
1089.058895436
 20
-954.8993971095
 10
1094.0015268709
 20
-944.9712131849
 10
1099.1351052361
 20
-935.1165037882
 10
1104.4545132691
 20
-925.345092308
 10
1109.9544484682
 20
-915.6667190999
 10
1115.6294283785
 20
-906.0910317766
 10
1121.4737960565
 20
-896.6275755916
 10
1127.4817257094
 20
-887.2857839238
 10
1133.6472285023
 20
-878.0749688743
 10
1139.964158528
 20
-869.0043119839
 10
1146.4262189332
 20
-860.0828550805
 10
1153.0269681955
 20
-851.3194912666
 10
1159.7598265445
 20
-842.7229560536
 10
1166.6180825207
 20
-834.3018186549
 10
1173.5948996653
 20
-826.0644734434
 10
1180.6833233352
 20
-818.0191315839
 10
1187.8762876356
 20
-810.1738128481
 10
1195.1666224633
 20
-802.5363376204
 10
1202.5470606538
 20
-795.1143191021
 10
1210.010245226
 20
-787.9151557229
 10
1217.5487367152
 20
-780.9460237651
 10
1225.155020589
 20
-774.2138702113
 10
1232.8215147383
 20
-767.7254058184
 10
1240.540577035
 20
-761.4870984288
 10
1248.30451295
 20
-755.5051665231
 10
1256.105583223
 20
-749.785573021
 10
1263.9360115776
 20
-744.3340193377
 10
1271.7879924725
 20
-739.1559397006
 10
1279.6536988823
 20
-734.2564957319
 10
1280.0928993046
 20
-733.9913855234
  0
LWPOLYLINE
  5
BD
330
1F
100
AcDbEntity
  8
0
  6
Continuous
 62
     7
370
    25
100
AcDbPolyline
 90
      123
 70
   128
 43
0.0
 10
1488.3464591442
 20
-655.89567276
 10
1488.885416914
 20
-656.0275040066
 10
1495.8056170625
 20
-657.9091749646
 10
1502.5762877847
 20
-660.1050165732
 10
1509.191805041
 20
-662.6132048624
 10
1515.6466736694
 20
-665.4316564121
 10
1521.9355319505
 20
-668.5580300831
 10
1528.0531560607
 20
-671.9897289614
 10
1533.9944644117
 20
-675.7239025153
 10
1539.7545218716
 20
-679.7574489636
 10
1545.3285438639
 20
-684.0870178515
 10
1550.7119003419
 20
-688.709012834
 10
1555.9001196348
 20
-693.6195946634
 10
1560.888892162
 20
-698.8146843778
 10
1565.6740740129
 20
-704.2899666896
 10
1570.2516903887
 20
-710.0408935702
 10
1574.6179389046
 20
-716.0626880274
 10
1578.7691927478
 20
-722.3503480734
 10
1582.7020036903
 20
-728.8986508802
 10
1586.4131049531
 20
-735.7021571174
 10
1589.8994139197
 20
-742.7552154705
 10
1593.1580346969
 20
-750.0519673353
 10
1596.1862605199
 20
-757.5863516841
 10
1598.9815760009
 20
-765.3521101006
 10
1601.5416592186
 20
-773.3427919781
 10
1603.8643836465
 20
-781.5517598778
 10
1605.9478199199
 20
-789.9721950422
 10
1607.7902374379
 20
-798.5971030593
 10
1609.3901058012
 20
-807.419319672
 10
1610.7460960834
 20
-816.4315167295
 10
1611.8570819349
 20
-825.626208274
 10
1612.7221405181
 20
-834.9957567595
 10
1613.3405532743
 20
-844.5323793952
 10
1613.7118065208
 20
-854.2281546109
 10
1613.835591877
 20
-864.0750286365
 10
1613.7118065208
 20
-874.0648221922
 10
1613.3405532743
 20
-884.1892372824
 10
1612.7221405181
 20
-894.4398640885
 10
1611.8570819349
 20
-904.8081879546
 10
1610.7460960834
 20
-915.2855964598
 10
1609.3901058012
 20
-925.8633865725
 10
1607.7902374379
 20
-936.5327718794
 10
1605.9478199199
 20
-947.2848898838
 10
1603.8643836465
 20
-958.1108093674
 10
1601.5416592186
 20
-969.0015378087
 10
1598.9815760009
 20
-979.9480288532
 10
1596.1862605199
 20
-990.9411898268
 10
1593.1580346969
 20
-1001.9718892897
 10
1589.8994139197
 20
-1013.0309646205
 10
1586.4131049531
 20
-1024.1092296275
 10
1582.7020036903
 20
-1035.1974821793
 10
1578.7691927478
 20
-1046.2865118482
 10
1574.6179389046
 20
-1057.3671075611
 10
1570.2516903887
 20
-1068.4300652506
 10
1565.6740740129
 20
-1079.4661955
 10
1560.888892162
 20
-1090.466331177
 10
1555.9001196348
 20
-1101.4213350481
 10
1550.7119003419
 20
-1112.3221073683
 10
1545.3285438639
 20
-1123.1595934399
 10
1539.7545218716
 20
-1133.9247911339
 10
1533.9944644117
 20
-1144.6087583671
 10
1528.0531560607
 20
-1155.2026205307
 10
1521.9355319505
 20
-1165.6975778609
 10
1515.6466736694
 20
-1176.0849127493
 10
1509.191805041
 20
-1186.3559969837
 10
1502.5762877847
 20
-1196.5022989151
 10
1495.8056170625
 20
-1206.5153905447
 10
1488.885416914
 20
-1216.3869545245
 10
1481.8214355852
 20
-1226.1087910659
 10
1474.6195407536
 20
-1235.6728247512
 10
1467.2857146538
 20
-1245.0711112411
 10
1459.8260491093
 20
-1254.2958438739
 10
1452.2467404714
 20
-1263.3393601498
 10
1444.5540844727
 20
-1272.1941480959
 10
1436.7544709977
 20
-1280.8528525061
 10
1428.8543787745
 20
-1289.3082810505
 10
1420.860369994
 20
-1297.5534102498
 10
1412.7790848582
 20
-1305.5813913091
 10
1404.6172360653
 20
-1313.3855558074
 10
1396.3816032335
 20
-1320.9594212361
 10
1388.0790272692
 20
-1328.2966963838
 10
1379.7164046853
 20
-1335.3912865624
 10
1371.3006818721
 20
-1342.2372986693
 10
1362.8388493274
 20
-1348.8290460828
 10
1354.33793585
 20
-1355.1610533852
 10
1345.8050027012
 20
-1361.2280609115
 10
1337.2471377393
 20
-1367.025029118
 10
1328.6714495322
 20
-1372.5471427683
 10
1320.0850614526
 20
-1377.7898149334
 10
1311.4951057611
 20
-1382.7486908015
 10
1302.9087176815
 20
-1387.4196512955
 10
1294.3330294744
 20
-1391.7988164944
 10
1285.7751645125
 20
-1395.8825488563
 10
1277.2422313637
 20
-1399.6674562397
 10
1268.7413178863
 20
-1403.1503947213
 10
1260.2794853416
 20
-1406.3284712074
 10
1251.8637625284
 20
-1409.1990458373
 10
1243.5011399445
 20
-1411.7597341757
 10
1235.1985639802
 20
-1414.0084091936
 10
1226.9629311484
 20
-1415.9432030351
 10
1218.8010823555
 20
-1417.5625085688
 10
1210.7197972197
 20
-1418.8649807229
 10
1202.7257884392
 20
-1419.8495376023
 10
1194.825696216
 20
-1420.5153613875
 10
1187.026082741
 20
-1420.8618990136
 10
1179.3334267423
 20
-1420.8888626301
 10
1171.7541181044
 20
-1420.5962298398
 10
1164.2944525599
 20
-1419.9842437173
 10
1156.9606264601
 20
-1419.0534126072
 10
1149.7587316285
 20
-1417.804509702
 10
1142.6947502997
 20
-1416.2385723996
 10
1135.7745501512
 20
-1414.3569014416
 10
1129.003879429
 20
-1412.161059833
 10
1122.3883621728
 20
-1409.6528715439
 10
1115.9334935443
 20
-1406.8344199941
 10
1109.6446352633
 20
-1403.7080463231
 10
1103.5270111531
 20
-1400.2763474449
 10
1097.585702802
 20
-1396.5421738909
 10
1091.8256453421
 20
-1392.5086274427
 10
1086.2516233498
 20
-1388.1790585548
 10
1080.8682668718
 20
-1383.5570635722
 10
1075.6800475789
 20
-1378.6464817428
 10
1072.80491791
 20
-1375.7127285101
  0
LWPOLYLINE
  5
BE
330
1F
100
AcDbEntity
  8
0
  6
Continuous
 62
     7
370
    25
100
AcDbPolyline
 90
      114
 70
   128
 43
0.0
 10
1584.448103737
 20
-668.7381713305
 10
1588.3806384636
 20
-671.0886954796
 10
1594.4969579574
 20
-675.0790439722
 10
1600.4290330502
 20
-679.3700298235
 10
1606.1722380882
 20
-683.9583070515
 10
1611.7220946929
 20
-688.8402978559
 10
1617.0742752531
 20
-694.0121954071
 10
1622.2246062993
 20
-699.4699668148
 10
1627.1690717583
 20
-705.2093562732
 10
1631.9038160848
 20
-711.2258883789
 10
1636.4251472674
 20
-717.5148716213
 10
1640.7295397082
 20
-724.0714020403
 10
1644.8136369714
 20
-730.8903670508
 10
1648.6742544008
 20
-737.966449429
 10
1652.3083816031
 20
-745.2941314586
 10
1655.7131847952
 20
-752.8676992337
 10
1658.8860090139
 20
-760.681247114
 10
1661.8243801865
 20
-768.7286823298
 10
1664.5260070594
 20
-777.0037297332
 10
1666.9887829853
 20
-785.4999366911
 10
1669.2107875655
 20
-794.2106781171
 10
1671.1902881479
 20
-803.1291616368
 10
1672.9257411772
 20
-812.2484328852
 10
1674.4157933996
 20
-821.5613809289
 10
1675.659282917
 20
-831.060743811
 10
1676.6552400938
 20
-840.7391142143
 10
1677.4028883126
 20
-850.5889452364
 10
1677.9016445796
 20
-860.6025562756
 10
1678.1511199798
 20
-870.7721390192
 10
1678.1511199798
 20
-881.0897635324
 10
1677.9016445796
 20
-891.547384442
 10
1677.4028883126
 20
-902.1368472097
 10
1676.6552400938
 20
-912.8498944912
 10
1675.659282917
 20
-923.6781725743
 10
1674.4157933996
 20
-934.6132378935
 10
1672.9257411772
 20
-945.6465636138
 10
1671.1902881479
 20
-956.7695462797
 10
1669.2107875655
 20
-967.973512524
 10
1666.9887829853
 20
-979.2497258307
 10
1664.5260070594
 20
-990.5893933479
 10
1661.8243801865
 20
-1001.983672744
 10
1658.8860090139
 20
-1013.4236791027
 10
1655.7131847952
 20
-1024.9004918512
 10
1652.3083816031
 20
-1036.405161716
 10
1648.6742544008
 20
-1047.9287177017
 10
1644.8136369714
 20
-1059.462174086
 10
1640.7295397082
 20
-1070.9965374265
 10
1636.4251472674
 20
-1082.5228135737
 10
1631.9038160848
 20
-1094.0320146841
 10
1627.1690717583
 20
-1105.5151662288
 10
1622.2246062993
 20
-1116.9633139919
 10
1617.074275253
 20
-1128.3675310519
 10
1611.7220946929
 20
-1139.7189247435
 10
1606.1722380882
 20
-1151.0086435914
 10
1600.4290330502
 20
-1162.2278842123
 10
1594.4969579574
 20
-1173.36789818
 10
1588.3806384636
 20
-1184.4199988466
 10
1582.0848438907
 20
-1195.3755681165
 10
1575.6144835099
 20
-1206.2260631663
 10
1568.9746027136
 20
-1216.9630231064
 10
1562.1703790812
 20
-1227.5780755784
 10
1555.2071183415
 20
-1238.0629432837
 10
1548.0902502358
 20
-1248.4094504378
 10
1540.8253242838
 20
-1258.6095291457
 10
1533.4180054562
 20
-1268.6552256928
 10
1525.8740697574
 20
-1278.5387067472
 10
1518.1993997215
 20
-1288.2522654676
 10
1510.3999798254
 20
-1297.7883275131
 10
1502.4818918221
 20
-1307.1394569494
 10
1494.4513099984
 20
-1316.2983620471
 10
1486.3144963606
 20
-1325.2579009675
 10
1478.077795751
 20
-1334.0110873315
 10
1469.747630901
 20
-1342.5510956679
 10
1461.3304974227
 20
-1350.871266735
 10
1452.8329587436
 20
-1358.9651127136
 10
1444.2616409886
 20
-1366.8263222661
 10
1435.6232278135
 20
-1374.4487654579
 10
1426.9244551931
 20
-1381.8264985369
 10
1418.1721061686
 20
-1388.9537685689
 10
1409.3730055585
 20
-1395.8250179231
 10
1400.5340146368
 20
-1402.4348886059
 10
1391.6620257827
 20
-1408.778226439
 10
1382.7639571062
 20
-1414.8500850784
 10
1373.8467470536
 20
-1420.6457298713
 10
1364.9173489971
 20
-1426.1606415483
 10
1355.9827258127
 20
-1431.3905197471
 10
1347.0498444508
 20
-1436.3312863661
 10
1338.1256705036
 20
-1440.9790887441
 10
1329.2171627735
 20
-1445.3303026645
 10
1320.3312678468
 20
-1449.3815351816
 10
1311.474914677
 20
-1453.1296272662
 10
1302.6550091821
 20
-1456.5716562689
 10
1293.8784288589
 20
-1459.7049381989
 10
1285.1520174209
 20
-1462.5270298173
 10
1276.4825794611
 20
-1465.0357305418
 10
1267.8768751465
 20
-1467.2290841632
 10
1259.3416149465
 20
-1469.1053803703
 10
1250.8834544002
 20
-1470.6631560836
 10
1242.5089889268
 20
-1471.9011965967
 10
1234.2247486825
 20
-1472.8185365226
 10
1226.0371934687
 20
-1473.4144605474
 10
1217.9527076946
 20
-1473.6885039874
 10
1209.9775953992
 20
-1473.6404531518
 10
1202.118075335
 20
-1473.2703455092
 10
1194.3802761194
 20
-1472.5784696584
 10
1186.7702314554
 20
-1471.5653651033
 10
1179.293875427
 20
-1470.2318218325
 10
1171.9570378716
 20
-1468.5788797028
 10
1164.7654398346
 20
-1466.6078276288
 10
1157.7246891078
 20
-1464.3202025776
 10
1150.8402758567
 20
-1461.7177883705
 10
1144.1175683398
 20
-1458.8026142916
 10
1137.5618087221
 20
-1455.5769535062
 10
1131.9848772191
 20
-1452.5123917851
  0
LWPOLYLINE
  5
BF
330
1F
100
AcDbEntity
  8
0
  6
Continuous
 62
     7
370
    25
100
AcDbPolyline
 90
      150
 70
   128
 43
0.0
 10
1409.9868695135
 20
-628.6439807857
 10
1410.4065518724
 20
-628.5513580661
 10
1418.9040905515
 20
-626.8341547198
 10
1427.3212240298
 20
-625.4361103309
 10
1435.6513888798
 20
-624.3583150522
 10
1443.8880894894
 20
-623.6016093162
 10
1452.0249031273
 20
-623.1665831792
 10
1460.0554849509
 20
-623.0535758614
 10
1467.9735729542
 20
-623.2626754827
 10
1475.7729928503
 20
-623.7937189934
 10
1483.4476628862
 20
-624.6462923018
 10
1490.991598585
 20
-625.8197305968
 10
1498.3989174126
 20
-627.3131188666
 10
1505.6638433646
 20
-629.1252926119
 10
1512.7807114703
 20
-631.2548387541
 10
1519.74397221
 20
-633.7000967372
 10
1526.5481958424
 20
-636.4591598226
 10
1533.1880766387
 20
-639.5298765759
 10
1539.6584370195
 20
-642.9098525445
 10
1545.9542315924
 20
-646.5964521249
 10
1552.0705510863
 20
-650.5868006175
 10
1558.002626179
 20
-654.8777864688
 10
1563.745831217
 20
-659.4660636969
 10
1569.2956878217
 20
-664.3480545013
 10
1574.6478683819
 20
-669.5199520524
 10
1579.7981994281
 20
-674.9777234601
 10
1584.7426648871
 20
-680.7171129185
 10
1589.4774092136
 20
-686.7336450243
 10
1593.9987403962
 20
-693.0226282666
 10
1598.303132837
 20
-699.5791586856
 10
1602.3872301002
 20
-706.3981236961
 10
1606.2478475296
 20
-713.4742060743
 10
1609.8819747319
 20
-720.8018881039
 10
1613.286777924
 20
-728.3754558791
 10
1616.4596021427
 20
-736.1890037593
 10
1619.3979733153
 20
-744.2364389751
 10
1622.0996001882
 20
-752.5114863785
 10
1624.5623761141
 20
-761.0076933365
 10
1626.7843806943
 20
-769.7184347624
 10
1628.7638812767
 20
-778.6369182821
 10
1630.499334306
 20
-787.7561895306
 10
1631.9893865284
 20
-797.0691375742
 10
1633.2328760458
 20
-806.5685004564
 10
1634.2288332226
 20
-816.2468708596
 10
1634.9764814414
 20
-826.0967018818
 10
1635.4752377084
 20
-836.110312921
 10
1635.7247131086
 20
-846.2798956645
 10
1635.7247131086
 20
-856.5975201777
 10
1635.4752377084
 20
-867.0551410873
 10
1634.9764814414
 20
-877.6446038551
 10
1634.2288332226
 20
-888.3576511365
 10
1633.2328760458
 20
-899.1859292196
 10
1631.9893865284
 20
-910.1209945388
 10
1630.499334306
 20
-921.1543202591
 10
1628.7638812767
 20
-932.277302925
 10
1626.7843806943
 20
-943.4812691693
 10
1624.5623761141
 20
-954.757482476
 10
1622.0996001882
 20
-966.0971499932
 10
1619.3979733153
 20
-977.4914293894
 10
1616.4596021427
 20
-988.9314357481
 10
1613.286777924
 20
-1000.4082484965
 10
1609.8819747319
 20
-1011.9129183613
 10
1606.2478475296
 20
-1023.436474347
 10
1602.3872301002
 20
-1034.9699307313
 10
1598.303132837
 20
-1046.5042940718
 10
1593.9987403962
 20
-1058.030570219
 10
1589.4774092136
 20
-1069.5397713294
 10
1584.7426648871
 20
-1081.0229228742
 10
1579.7981994281
 20
-1092.4710706372
 10
1574.6478683819
 20
-1103.8752876972
 10
1569.2956878217
 20
-1115.2266813889
 10
1563.745831217
 20
-1126.5164002367
 10
1558.002626179
 20
-1137.7356408577
 10
1552.0705510862
 20
-1148.8756548253
 10
1545.9542315924
 20
-1159.9277554919
 10
1539.6584370195
 20
-1170.8833247618
 10
1533.1880766387
 20
-1181.7338198116
 10
1526.5481958424
 20
-1192.4707797517
 10
1519.74397221
 20
-1203.0858322237
 10
1512.7807114703
 20
-1213.570699929
 10
1505.6638433646
 20
-1223.9172070831
 10
1498.3989174126
 20
-1234.117285791
 10
1490.991598585
 20
-1244.1629823381
 10
1483.4476628862
 20
-1254.0464633925
 10
1475.7729928503
 20
-1263.7600221129
 10
1467.9735729542
 20
-1273.2960841584
 10
1460.0554849509
 20
-1282.6472135948
 10
1452.0249031272
 20
-1291.8061186925
 10
1443.8880894894
 20
-1300.7656576128
 10
1435.6513888798
 20
-1309.5188439769
 10
1427.3212240298
 20
-1318.0588523132
 10
1418.9040905515
 20
-1326.3790233803
 10
1410.4065518724
 20
-1334.4728693589
 10
1401.8352341174
 20
-1342.3340789114
 10
1393.1968209423
 20
-1349.9565221032
 10
1384.4980483219
 20
-1357.3342551822
 10
1375.7456992974
 20
-1364.4615252142
 10
1366.9465986873
 20
-1371.3327745684
 10
1358.1076077656
 20
-1377.9426452512
 10
1349.2356189115
 20
-1384.2859830843
 10
1340.337550235
 20
-1390.3578417237
 10
1331.4203401824
 20
-1396.1534865166
 10
1322.4909421259
 20
-1401.6683981936
 10
1313.5563189415
 20
-1406.8982763925
 10
1304.6234375797
 20
-1411.8390430114
 10
1295.6992636324
 20
-1416.4868453894
 10
1286.7907559023
 20
-1420.8380593098
 10
1277.9048609756
 20
-1424.8892918269
 10
1269.0485078058
 20
-1428.6373839116
 10
1260.2286023109
 20
-1432.0794129142
 10
1251.4520219877
 20
-1435.2126948442
 10
1242.7256105497
 20
-1438.0347864626
 10
1234.0561725899
 20
-1440.5434871871
 10
1225.4504682753
 20
-1442.7368408085
 10
1216.9152080753
 20
-1444.6131370156
 10
1208.457047529
 20
-1446.1709127289
 10
1200.0825820556
 20
-1447.408953242
 10
1191.7983418113
 20
-1448.3262931679
 10
1183.6107865975
 20
-1448.9222171927
 10
1175.5263008234
 20
-1449.1962606328
 10
1167.551188528
 20
-1449.1482097972
 10
1159.6916684638
 20
-1448.7781021546
 10
1151.9538692482
 20
-1448.0862263037
 10
1144.3438245842
 20
-1447.0731217487
 10
1136.8674685558
 20
-1445.7395784778
 10
1129.5306310004
 20
-1444.0866363481
 10
1122.3390329635
 20
-1442.1155842741
 10
1115.2982822366
 20
-1439.8279592229
 10
1108.4138689855
 20
-1437.2255450158
 10
1101.6911614686
 20
-1434.310370937
 10
1095.1354018509
 20
-1431.0847101515
 10
1088.7517021166
 20
-1427.5510779327
 10
1082.5450400827
 20
-1423.7122297007
 10
1076.5202555175
 20
-1419.5711588738
 10
1070.6820463669
 20
-1415.1310945344
 10
1065.0349650908
 20
-1410.3954989113
 10
1059.5834151131
 20
-1405.3680646794
 10
1054.3316473887
 20
-1400.0527120807
 10
1049.2837570879
 20
-1394.4535858673
 10
1044.4436804039
 20
-1388.5750520693
 10
1039.8151914828
 20
-1382.4216945906
 10
1035.4018994811
 20
-1375.9983116343
 10
1031.207245751
 20
-1369.3099119612
 10
1027.2345011575
 20
-1362.3617109841
 10
1023.4867635272
 20
-1355.1591267011
 10
1019.9669552333
 20
-1347.7077754709
 10
1016.6778209162
 20
-1340.013467633
 10
1013.6219253441
 20
-1332.0822029771
 10
1010.8016514124
 20
-1323.9201660648
 10
1010.0193764591
 20
-1321.4830706903
  0
LWPOLYLINE
  5
C0
330
1F
100
AcDbEntity
  8
0
  6
Continuous
 62
     7
370
    25
100
AcDbPolyline
 90
       33
 70
   128
 43
0.0
 10
1096.4634385119
 20
-1111.4913504527
 10
1097.3869141839
 20
-1107.7981473016
 10
1100.1963035623
 20
-1097.1695152095
 10
1103.2388712454
 20
-1086.5078573199
 10
1106.5118676004
 20
-1075.8228087987
 10
1110.0123347512
 20
-1065.1240259504
 10
1113.7371092516
 20
-1054.4211774916
 10
1117.682824944
 20
-1043.7239358129
 10
1121.8459160016
 20
-1033.0419682382
 10
1126.2226201508
 20
-1022.3849282876
 10
1130.8089820716
 20
-1011.7624469537
 10
1135.6008569715
 20
-1001.1841239978
 10
1140.5939143318
 20
-990.6595192743
 10
1145.7836418208
 20
-980.1981440911
 10
1151.165349372
 20
-969.8094526146
 10
1156.7341734222
 20
-959.5028333251
 10
1162.4850813074
 20
-949.2876005327
 10
1168.4128758104
 20
-939.1729859594
 10
1174.5121998577
 20
-929.1681303966
 10
1180.7775413611
 20
-919.2820754439
 10
1187.2032381989
 20
-909.5237553386
 10
1193.7834833328
 20
-899.9019888811
 10
1200.5123300561
 20
-890.4254714655
 10
1207.3836973674
 20
-881.102767221
 10
1214.3913754667
 20
-871.9423012728
 10
1221.5290313669
 20
-862.9523521281
 10
1228.7902146174
 20
-854.141044194
 10
1236.168363133
 20
-845.5163404361
 10
1243.6568091249
 20
-837.0860351818
 10
1251.2487851259
 20
-828.8577470764
 10
1258.9374301065
 20
-820.8389121979
 10
1266.7157956754
 20
-813.0367773373
 10
1271.3676144483
 20
-808.5156032216
  0
ENDSEC
  0
SECTION
  2
OBJECTS
  0
DICTIONARY
  5
C
330
0
100
AcDbDictionary
281
     1
  3
ACAD_GROUP
350
D
  3
ACAD_LAYOUT
350
1A
  3
ACAD_MLINESTYLE
350
17
  3
ACAD_PLOTSETTINGS
350
19
  3
ACAD_PLOTSTYLENAME
350
E
  3
ACAD_SCALELIST
350
47
  0
DICTIONARY
  5
D
102
{ACAD_REACTORS
330
C
102
}
330
C
100
AcDbDictionary
281
     1
  0
DICTIONARY
  5
1A
102
{ACAD_REACTORS
330
C
102
}
330
C
100
AcDbDictionary
281
     1
  3
Layout1
350
1E
  3
Layout2
350
26
  3
Model
350
22
  0
DICTIONARY
  5
17
102
{ACAD_REACTORS
330
C
102
}
330
C
100
AcDbDictionary
281
     1
  3
Standard
350
18
  0
DICTIONARY
  5
19
102
{ACAD_REACTORS
330
C
102
}
330
C
100
AcDbDictionary
281
     1
  0
ACDBDICTIONARYWDFLT
  5
E
102
{ACAD_REACTORS
330
C
102
}
330
C
100
AcDbDictionary
281
     1
  3
Normal
350
F
100
AcDbDictionaryWithDefault
340
F
  0
DICTIONARY
  5
47
102
{ACAD_REACTORS
330
C
102
}
330
C
100
AcDbDictionary
281
     1
  3
A0
350
48
  3
A1
350
49
  3
A2
350
4A
  3
A3
350
4B
  3
A4
350
4C
  3
A5
350
4D
  3
A6
350
4E
  3
A7
350
4F
  3
A8
350
50
  3
A9
350
51
  3
B0
350
52
  3
B1
350
53
  3
B2
350
54
  3
B3
350
55
  3
B4
350
56
  3
B5
350
57
  3
B6
350
58
  3
B7
350
59
  3
B8
350
5A
  3
B9
350
5B
  3
C0
350
5C
  3
C1
350
5D
  3
C2
350
5E
  3
C3
350
5F
  3
C4
350
60
  3
C5
350
61
  3
C6
350
62
  3
C7
350
63
  3
C8
350
64
  3
C9
350
65
  3
D0
350
66
  3
D1
350
67
  3
D2
350
68
  0
LAYOUT
  5
1E
102
{ACAD_REACTORS
330
1A
102
}
330
1A
100
AcDbPlotSettings
  1

  2
none_device
  4

  6

 40
0.0
 41
0.0
 42
0.0
 43
0.0
 44
0.0
 45
0.0
 46
0.0
 47
0.0
 48
0.0
 49
0.0
140
0.0
141
0.0
142
1.0
143
1.0
 70
   688
 72
     1
 73
     0
 74
     5
  7

 75
    16
147
1.0
148
0.0
149
0.0
100
AcDbLayout
  1
Layout1
 70
     1
 71
     1
 10
0.0
 20
0.0
 11
420.0
 21
297.0
 12
0.0
 22
0.0
 32
0.0
 14
1.0000000000E+20
 24
1.0000000000E+20
 34
1.0000000000E+20
 15
-1.0000000000E+20
 25
-1.0000000000E+20
 35
-1.0000000000E+20
146
0.0
 13
0.0
 23
0.0
 33
0.0
 16
1.0
 26
0.0
 36
0.0
 17
0.0
 27
1.0
 37
0.0
 76
     0
330
1B
  0
LAYOUT
  5
26
102
{ACAD_REACTORS
330
1A
102
}
330
1A
100
AcDbPlotSettings
  1

  2
none_device
  4

  6

 40
0.0
 41
0.0
 42
0.0
 43
0.0
 44
0.0
 45
0.0
 46
0.0
 47
0.0
 48
0.0
 49
0.0
140
0.0
141
0.0
142
1.0
143
1.0
 70
   688
 72
     1
 73
     0
 74
     5
  7

 75
    16
147
1.0
148
0.0
149
0.0
100
AcDbLayout
  1
Layout2
 70
     1
 71
     2
 10
0.0
 20
0.0
 11
0.0
 21
0.0
 12
0.0
 22
0.0
 32
0.0
 14
0.0
 24
0.0
 34
0.0
 15
0.0
 25
0.0
 35
0.0
146
0.0
 13
0.0
 23
0.0
 33
0.0
 16
1.0
 26
0.0
 36
0.0
 17
0.0
 27
1.0
 37
0.0
 76
     0
330
23
  0
LAYOUT
  5
22
102
{ACAD_REACTORS
330
1A
102
}
330
1A
100
AcDbPlotSettings
  1

  2
none_device
  4
Letter_(8.50_x_11.00_Inches)
  6

 40
6.35
 41
6.35
 42
6.35000508
 43
6.35000508
 44
215.9
 45
279.4
 46
0.0
 47
0.0
 48
0.0
 49
0.0
140
0.0
141
0.0
142
1.0
143
1.0
 70
  1712
 72
     1
 73
     0
 74
     0
  7

 75
     0
147
1.0
148
0.0
149
0.0
100
AcDbLayout
  1
Model
 70
     1
 71
     0
 10
0.0
 20
0.0
 11
279.4
 21
215.9
 12
0.0
 22
0.0
 32
0.0
 14
0.0
 24
0.0
 34
0.0
 15
279.4
 25
215.9
 35
0.0
146
0.0
 13
0.0
 23
0.0
 33
0.0
 16
1.0
 26
0.0
 36
0.0
 17
0.0
 27
1.0
 37
0.0
 76
     0
330
1F
331
29
  0
MLINESTYLE
  5
18
102
{ACAD_REACTORS
330
17
102
}
330
17
100
AcDbMlineStyle
  2
Standard
 70
     0
  3

 62
   256
 51
90.0
 52
90.0
 71
     2
 49
0.5
 62
   256
  6
BYLAYER
 49
-0.5
 62
   256
  6
BYLAYER
  0
ACDBPLACEHOLDER
  5
F
102
{ACAD_REACTORS
330
E
102
}
330
E
  0
SCALE
  5
48
102
{ACAD_REACTORS
330
47
102
}
330
47
100
AcDbScale
 70
     0
300
1:1
140
1.0
141
1.0
290
     1
  0
SCALE
  5
49
102
{ACAD_REACTORS
330
47
102
}
330
47
100
AcDbScale
 70
     0
300
1:2
140
1.0
141
2.0
290
     0
  0
SCALE
  5
4A
102
{ACAD_REACTORS
330
47
102
}
330
47
100
AcDbScale
 70
     0
300
1:4
140
1.0
141
4.0
290
     0
  0
SCALE
  5
4B
102
{ACAD_REACTORS
330
47
102
}
330
47
100
AcDbScale
 70
     0
300
1:5
140
1.0
141
5.0
290
     0
  0
SCALE
  5
4C
102
{ACAD_REACTORS
330
47
102
}
330
47
100
AcDbScale
 70
     0
300
1:8
140
1.0
141
8.0
290
     0
  0
SCALE
  5
4D
102
{ACAD_REACTORS
330
47
102
}
330
47
100
AcDbScale
 70
     0
300
1:10
140
1.0
141
10.0
290
     0
  0
SCALE
  5
4E
102
{ACAD_REACTORS
330
47
102
}
330
47
100
AcDbScale
 70
     0
300
1:16
140
1.0
141
16.0
290
     0
  0
SCALE
  5
4F
102
{ACAD_REACTORS
330
47
102
}
330
47
100
AcDbScale
 70
     0
300
1:20
140
1.0
141
20.0
290
     0
  0
SCALE
  5
50
102
{ACAD_REACTORS
330
47
102
}
330
47
100
AcDbScale
 70
     0
300
1:30
140
1.0
141
30.0
290
     0
  0
SCALE
  5
51
102
{ACAD_REACTORS
330
47
102
}
330
47
100
AcDbScale
 70
     0
300
1:40
140
1.0
141
40.0
290
     0
  0
SCALE
  5
52
102
{ACAD_REACTORS
330
47
102
}
330
47
100
AcDbScale
 70
     0
300
1:50
140
1.0
141
50.0
290
     0
  0
SCALE
  5
53
102
{ACAD_REACTORS
330
47
102
}
330
47
100
AcDbScale
 70
     0
300
1:100
140
1.0
141
100.0
290
     0
  0
SCALE
  5
54
102
{ACAD_REACTORS
330
47
102
}
330
47
100
AcDbScale
 70
     0
300
2:1
140
2.0
141
1.0
290
     0
  0
SCALE
  5
55
102
{ACAD_REACTORS
330
47
102
}
330
47
100
AcDbScale
 70
     0
300
4:1
140
4.0
141
1.0
290
     0
  0
SCALE
  5
56
102
{ACAD_REACTORS
330
47
102
}
330
47
100
AcDbScale
 70
     0
300
8:1
140
8.0
141
1.0
290
     0
  0
SCALE
  5
57
102
{ACAD_REACTORS
330
47
102
}
330
47
100
AcDbScale
 70
     0
300
10:1
140
10.0
141
1.0
290
     0
  0
SCALE
  5
58
102
{ACAD_REACTORS
330
47
102
}
330
47
100
AcDbScale
 70
     0
300
100:1
140
100.0
141
1.0
290
     0
  0
SCALE
  5
59
102
{ACAD_REACTORS
330
47
102
}
330
47
100
AcDbScale
 70
     0
300
1/128" = 1'-0"
140
0.0078125
141
12.0
290
     0
  0
SCALE
  5
5A
102
{ACAD_REACTORS
330
47
102
}
330
47
100
AcDbScale
 70
     0
300
1/64" = 1'-0"
140
0.015625
141
12.0
290
     0
  0
SCALE
  5
5B
102
{ACAD_REACTORS
330
47
102
}
330
47
100
AcDbScale
 70
     0
300
1/32" = 1'-0"
140
0.03125
141
12.0
290
     0
  0
SCALE
  5
5C
102
{ACAD_REACTORS
330
47
102
}
330
47
100
AcDbScale
 70
     0
300
1/16" = 1'-0"
140
0.0625
141
12.0
290
     0
  0
SCALE
  5
5D
102
{ACAD_REACTORS
330
47
102
}
330
47
100
AcDbScale
 70
     0
300
3/32" = 1'-0"
140
0.09375
141
12.0
290
     0
  0
SCALE
  5
5E
102
{ACAD_REACTORS
330
47
102
}
330
47
100
AcDbScale
 70
     0
300
1/8" = 1'-0"
140
0.125
141
12.0
290
     0
  0
SCALE
  5
5F
102
{ACAD_REACTORS
330
47
102
}
330
47
100
AcDbScale
 70
     0
300
3/16" = 1'-0"
140
0.1875
141
12.0
290
     0
  0
SCALE
  5
60
102
{ACAD_REACTORS
330
47
102
}
330
47
100
AcDbScale
 70
     0
300
1/4" = 1'-0"
140
0.25
141
12.0
290
     0
  0
SCALE
  5
61
102
{ACAD_REACTORS
330
47
102
}
330
47
100
AcDbScale
 70
     0
300
3/8" = 1'-0"
140
0.375
141
12.0
290
     0
  0
SCALE
  5
62
102
{ACAD_REACTORS
330
47
102
}
330
47
100
AcDbScale
 70
     0
300
1/2" = 1'-0"
140
0.5
141
12.0
290
     0
  0
SCALE
  5
63
102
{ACAD_REACTORS
330
47
102
}
330
47
100
AcDbScale
 70
     0
300
3/4" = 1'-0"
140
0.75
141
12.0
290
     0
  0
SCALE
  5
64
102
{ACAD_REACTORS
330
47
102
}
330
47
100
AcDbScale
 70
     0
300
1" = 1'-0"
140
1.0
141
12.0
290
     0
  0
SCALE
  5
65
102
{ACAD_REACTORS
330
47
102
}
330
47
100
AcDbScale
 70
     0
300
1-1/2" = 1'-0"
140
1.5
141
12.0
290
     0
  0
SCALE
  5
66
102
{ACAD_REACTORS
330
47
102
}
330
47
100
AcDbScale
 70
     0
300
3" = 1'-0"
140
3.0
141
12.0
290
     0
  0
SCALE
  5
67
102
{ACAD_REACTORS
330
47
102
}
330
47
100
AcDbScale
 70
     0
300
6" = 1'-0"
140
6.0
141
12.0
290
     0
  0
SCALE
  5
68
102
{ACAD_REACTORS
330
47
102
}
330
47
100
AcDbScale
 70
     0
300
1'-0" = 1'-0"
140
12.0
141
12.0
290
     0
  0
ENDSEC
  0
EOF
